  0
SECTION
  2
HEADER
  9
$ACADVER
  1
AC1009
  9
$INSBASE
 10
0.0
 20
0.0
 30
0.0
  9
$EXTMIN
 10
-35.008239117460562
 20
-64.666962959333432
 30
-0.0015258207003583
  9
$EXTMAX
 10
235.00824037474621
 20
336.77813363551252
 30
0.0000000349246037
  9
$LIMMIN
 10
0.0
 20
0.0
  9
$LIMMAX
 10
0.0
 20
0.0
  9
$ORTHOMODE
 70
     0
  9
$REGENMODE
 70
     1
  9
$FILLMODE
 70
     1
  9
$QTEXTMODE
 70
     0
  9
$MIRRTEXT
 70
     1
  9
$DRAGMODE
 70
     2
  9
$LTSCALE
 40
7.6199999999999983
  9
$OSMODE
 70
   231
  9
$ATTMODE
 70
     1
  9
$TEXTSIZE
 40
0.0
  9
$TRACEWID
 40
1.0
  9
$TEXTSTYLE
  7
STANDARD
  9
$CLAYER
  8
DATA
  9
$CELTYPE
  6
BYLAYER
  9
$CECOLOR
 62
   256
  9
$DIMSCALE
 40
1.0
  9
$DIMASZ
 40
0.18
  9
$DIMEXO
 40
0.0625
  9
$DIMDLI
 40
0.38
  9
$DIMRND
 40
0.0
  9
$DIMDLE
 40
0.0
  9
$DIMEXE
 40
0.18
  9
$DIMTP
 40
0.0
  9
$DIMTM
 40
0.0
  9
$DIMTXT
 40
0.18
  9
$DIMCEN
 40
0.09
  9
$DIMTSZ
 40
0.0
  9
$DIMTOL
 70
     0
  9
$DIMLIM
 70
     0
  9
$DIMTIH
 70
     1
  9
$DIMTOH
 70
     1
  9
$DIMSE1
 70
     0
  9
$DIMSE2
 70
     0
  9
$DIMTAD
 70
     0
  9
$DIMZIN
 70
     0
  9
$DIMBLK
  1

  9
$DIMASO
 70
     1
  9
$DIMSHO
 70
     1
  9
$DIMPOST
  1

  9
$DIMAPOST
  1

  9
$DIMALT
 70
     0
  9
$DIMALTD
 70
     2
  9
$DIMALTF
 40
25.399999999999999
  9
$DIMLFAC
 40
1.0
  9
$DIMTOFL
 70
     0
  9
$DIMTVP
 40
0.0
  9
$DIMTIX
 70
     0
  9
$DIMSOXD
 70
     0
  9
$DIMSAH
 70
     0
  9
$DIMBLK1
  1

  9
$DIMBLK2
  1

  9
$DIMSTYLE
  2
STANDARD
  9
$DIMCLRD
 70
     0
  9
$DIMCLRE
 70
     0
  9
$DIMCLRT
 70
     0
  9
$DIMTFAC
 40
1.0
  9
$DIMGAP
 40
0.09
  9
$LUNITS
 70
     2
  9
$LUPREC
 70
     4
  9
$SKETCHINC
 40
0.1
  9
$FILLETRAD
 40
0.0
  9
$AUNITS
 70
     0
  9
$AUPREC
 70
     0
  9
$MENU
  1
acad
  9
$ELEVATION
 40
0.0
  9
$PELEVATION
 40
0.0
  9
$THICKNESS
 40
0.0
  9
$LIMCHECK
 70
     0
  9
$BLIPMODE
 70
     0
  9
$CHAMFERA
 40
0.0
  9
$CHAMFERB
 40
0.0
  9
$SKPOLY
 70
     0
  9
$TDCREATE
 40
2455092.6646412038
  9
$TDUPDATE
 40
2455092.6791725811
  9
$TDINDWG
 40
0.0002949421
  9
$TDUSRTIMER
 40
0.0002949421
  9
$USRTIMER
 70
     1
  9
$ANGBASE
 50
0.0
  9
$ANGDIR
 70
     0
  9
$PDMODE
 70
     1
  9
$PDSIZE
 40
-2.0
  9
$PLINEWID
 40
0.0
  9
$COORDS
 70
     0
  9
$SPLFRAME
 70
     0
  9
$SPLINETYPE
 70
     6
  9
$SPLINESEGS
 70
     8
  9
$ATTDIA
 70
     0
  9
$ATTREQ
 70
     1
  9
$HANDLING
 70
     1
  9
$HANDSEED
  5
29B
  9
$SURFTAB1
 70
     6
  9
$SURFTAB2
 70
     6
  9
$SURFTYPE
 70
     6
  9
$SURFU
 70
     6
  9
$SURFV
 70
     6
  9
$UCSNAME
  2

  9
$UCSORG
 10
0.0
 20
0.0
 30
0.0
  9
$UCSXDIR
 10
1.0
 20
0.0
 30
0.0
  9
$UCSYDIR
 10
0.0
 20
1.0
 30
0.0
  9
$PUCSNAME
  2

  9
$PUCSORG
 10
0.0
 20
0.0
 30
0.0
  9
$PUCSXDIR
 10
1.0
 20
0.0
 30
0.0
  9
$PUCSYDIR
 10
0.0
 20
1.0
 30
0.0
  9
$USERI1
 70
     0
  9
$USERI2
 70
     0
  9
$USERI3
 70
     0
  9
$USERI4
 70
     0
  9
$USERI5
 70
     0
  9
$USERR1
 40
0.0
  9
$USERR2
 40
0.0
  9
$USERR3
 40
0.0
  9
$USERR4
 40
0.0
  9
$USERR5
 40
0.0
  9
$WORLDVIEW
 70
     1
  9
$SHADEDGE
 70
     3
  9
$SHADEDIF
 70
    70
  9
$TILEMODE
 70
     1
  9
$MAXACTVP
 70
    64
  9
$PLIMCHECK
 70
     0
  9
$PEXTMIN
 10
1.0000000000000000E+020
 20
1.0000000000000000E+020
 30
1.0000000000000000E+020
  9
$PEXTMAX
 10
-1.0000000000000000E+020
 20
-1.0000000000000000E+020
 30
-1.0000000000000000E+020
  9
$PLIMMIN
 10
0.0
 20
0.0
  9
$PLIMMAX
 10
12.0
 20
9.0
  9
$UNITMODE
 70
     0
  9
$VISRETAIN
 70
     0
  9
$PLINEGEN
 70
     1
  9
$PSLTSCALE
 70
     0
  0
ENDSEC
  0
SECTION
  2
TABLES
  0
TABLE
  2
VPORT
 70
     1
  0
VPORT
  2
*ACTIVE
 70
     0
 10
0.0
 20
0.0
 11
1.0
 21
1.0
 12
100.0000006286427
 22
136.05558533808949
 13
0.0
 23
0.0
 14
1.0
 24
1.0
 15
0.0
 25
0.0
 16
0.0
 26
0.0
 36
1.0
 17
0.0
 27
0.0
 37
0.0
 40
404.43723396077019
 41
1.9863184079601981
 42
50.0
 43
0.0
 44
0.0
 50
0.0
 51
0.0
 71
     0
 72
  2000
 73
     1
 74
     1
 75
     0
 76
     0
 77
     0
 78
     0
  0
ENDTAB
  0
TABLE
  2
LTYPE
 70
    11
  0
LTYPE
  2
CONTINUOUS
 70
     0
  3
Solid line
 72
    65
 73
     0
 40
0.0
  0
ENDTAB
  0
TABLE
  2
LAYER
 70
     5
  0
LAYER
  2
0
 70
     0
 62
     7
  6
CONTINUOUS
  0
LAYER
  2
DATA
 70
     0
 62
     7
  6
CONTINUOUS
  0
LAYER
  2
HIBINO-BASE
 70
     0
 62
     7
  6
CONTINUOUS
  0
LAYER
  2
SPEC
 70
     0
 62
     7
  6
CONTINUOUS
  0
LAYER
  2
DIMNSIONS
 70
     0
 62
     7
  6
CONTINUOUS
  0
ENDTAB
  0
TABLE
  2
STYLE
 70
     3
  0
STYLE
  2
STANDARD
 70
     0
 40
0.0
 41
1.0
 50
0.0
 71
     0
 42
0.0
  3
txt
  4
BIGFONT.SHX
  0
ENDTAB
  0
TABLE
  2
VIEW
 70
     0
  0
ENDTAB
  0
TABLE
  2
UCS
 70
     0
  0
ENDTAB
  0
TABLE
  2
APPID
 70
     3
  0
APPID
  2
ACAD
 70
     0
  0
APPID
  2
ACADANNOTATIVE
 70
     0
  0
APPID
  2
ACAD_MLEADERVER
 70
     0
  0
ENDTAB
  0
TABLE
  2
DIMSTYLE
 70
     2
  0
DIMSTYLE
  2
STANDARD
 70
     0
  3

  4

  5

  6

  7

 40
1.0
 41
0.18
 42
0.0625
 43
0.38
 44
0.18
 45
0.0
 46
0.0
 47
0.0
 48
0.0
140
0.18
141
0.09
142
0.0
143
25.399999999999999
144
1.0
145
0.0
146
1.0
147
0.09
 71
     0
 72
     0
 73
     1
 74
     1
 75
     0
 76
     0
 77
     0
 78
     0
170
     0
171
     2
172
     0
173
     0
174
     0
175
     0
176
     0
177
     0
178
     0
  0
ENDTAB
  0
ENDSEC
  0
SECTION
  2
BLOCKS
  0
BLOCK
  8
0
  2
$MODEL_SPACE
 70
     0
 10
0.0
 20
0.0
 30
0.0
  3
$MODEL_SPACE
  1

  0
ENDBLK
  5
23C
  8
0
  0
BLOCK
 67
     1
  8
0
  2
$PAPER_SPACE
 70
     0
 10
0.0
 20
0.0
 30
0.0
  3
$PAPER_SPACE
  1

  0
ENDBLK
  5
238
 67
     1
  8
0
  0
ENDSEC
  0
SECTION
  2
ENTITIES
  0
LINE
  5
2C
  8
HIBINO-BASE
  6
CONTINUOUS
 62
     7
 10
-34.999999999999993
 20
336.76590750000008
 30
0.0
 11
235.0
 21
336.76590750000008
 31
0.0
  0
LINE
  5
2D
  8
HIBINO-BASE
  6
CONTINUOUS
 62
     7
 10
235.0
 20
-53.234092500000003
 30
0.0
 11
-34.999999999999993
 21
-53.234092500000003
 31
0.0
  0
LINE
  5
2E
  8
HIBINO-BASE
  6
CONTINUOUS
 62
     7
 10
-34.999999999999993
 20
-53.234092500000003
 30
0.0
 11
-34.999999999999993
 21
336.76590750000008
 31
0.0
  0
TEXT
  5
2F
  8
HIBINO-BASE
 62
     7
 10
-24.224
 20
-62.847109199999991
 30
0.0
 40
5.4000662695312487
  1
Hibino Corporation
 41
0.7
 11
-24.224
 21
-57.44704293046874
 31
0.0
 73
     3
  0
LINE
  5
30
  8
HIBINO-BASE
  6
CONTINUOUS
 62
     7
 10
235.0
 20
336.76590750000008
 30
0.0
 11
235.0
 21
-53.234092500000003
 31
0.0
  0
LINE
  5
31
  8
HIBINO-BASE
  6
CONTINUOUS
 62
     7
 10
100.0
 20
-19.484092499999971
 30
0.0
 11
235.0
 21
-19.484092499999971
 31
0.0
  0
LINE
  5
32
  8
HIBINO-BASE
  6
CONTINUOUS
 62
     7
 10
100.0
 20
-53.234092500000003
 30
0.0
 11
100.0
 21
-19.484092499999971
 31
0.0
  0
TEXT
  5
33
  8
HIBINO-BASE
 62
     7
 10
101.34999999999999
 20
-23.247132499999999
 30
0.0
 40
2.4432617187500001
  1
NOTE
 41
0.7
 11
101.34999999999999
 21
-20.803870781250001
 31
0.0
 73
     3
  0
LINE
  5
34
  8
HIBINO-BASE
  6
CONTINUOUS
 62
     7
 10
152.5
 20
-53.234092500000003
 30
0.0
 11
152.5
 21
-19.484092499999971
 31
0.0
  0
TEXT
  5
35
  8
HIBINO-BASE
 62
     7
 10
153.84999999999991
 20
-23.247132499999999
 30
0.0
 40
2.4432617187500001
  1
TITLE
 41
0.7
 11
153.84999999999991
 21
-20.803870781250001
 31
0.0
 73
     3
  0
TEXT
  5
36
  8
HIBINO-BASE
 62
     7
 10
175.10258499999989
 20
-62.847109199999991
 30
0.0
 40
5.4000662695312487
  1
ヒビノ株式会社
 41
0.7
 11
175.10258499999989
 21
-57.44704293046874
 31
0.0
 73
     3
  0
LINE
  5
37
  8
HIBINO-BASE
  6
CONTINUOUS
 62
     7
 10
100.0
 20
-38.234092499999967
 30
0.0
 11
235.0
 21
-38.234092499999967
 31
0.0
  0
TEXT
  5
38
  8
HIBINO-BASE
 62
     7
 10
172.59999999999991
 20
-41.912652499999979
 30
0.0
 40
2.4432617187500001
  1
DRAWN
 41
0.7
 11
172.59999999999991
 21
-39.469390781249977
 31
0.0
 73
     3
  0
TEXT
  5
39
  8
HIBINO-BASE
 62
     7
 10
135.09999999999991
 20
-41.912652499999979
 30
0.0
 40
2.4432617187500001
  1
DATE
 41
0.7
 11
135.09999999999991
 21
-39.469390781249977
 31
0.0
 73
     3
  0
TEXT
  5
3A
  8
HIBINO-BASE
 62
     7
 10
120.09999999999999
 20
-41.912652499999979
 30
0.0
 40
2.4432617187500001
  1
SCALE
 41
0.7
 11
120.09999999999999
 21
-39.469390781249977
 31
0.0
 73
     3
  0
TEXT
  5
3B
  8
HIBINO-BASE
 62
     7
 10
153.84999999999991
 20
-41.912652499999979
 30
0.0
 40
2.4432617187500001
  1
DESIGN
 41
0.7
 11
153.84999999999991
 21
-39.469390781249977
 31
0.0
 73
     3
  0
TEXT
  5
3C
  8
HIBINO-BASE
 62
     7
 10
210.09999999999999
 20
-41.912652499999979
 30
0.0
 40
2.4432617187500001
  1
DRAWING NO.
 41
0.7
 11
210.09999999999999
 21
-39.469390781249977
 31
0.0
 73
     3
  0
TEXT
  5
3D
  8
HIBINO-BASE
 62
     7
 10
191.34999999999999
 20
-41.912652499999979
 30
0.0
 40
2.4432617187500001
  1
CHECK
 41
0.7
 11
191.34999999999999
 21
-39.469390781249977
 31
0.0
 73
     3
  0
LINE
  5
3E
  8
HIBINO-BASE
  6
CONTINUOUS
 62
     7
 10
121.5625
 20
-51.359092500000003
 30
0.0
 11
127.1875
 21
-45.734092499999967
 31
0.0
  0
TEXT
  5
3F
  8
HIBINO-BASE
 62
     7
 10
120.625
 20
-47.397507500000003
 30
0.0
 40
2.4432617187500001
  1
1
 41
0.7
 11
120.625
 21
-44.954245781250002
 31
0.0
 73
     3
  0
LINE
  5
40
  8
HIBINO-BASE
  6
CONTINUOUS
 62
     7
 10
118.75
 20
-53.234092500000003
 30
0.0
 11
118.75
 21
-38.234092499999967
 31
0.0
  0
LINE
  5
41
  8
HIBINO-BASE
  6
CONTINUOUS
 62
     7
 10
133.74999999999989
 20
-53.234092500000003
 30
0.0
 11
133.74999999999989
 21
-38.234092499999967
 31
0.0
  0
LINE
  5
42
  8
HIBINO-BASE
  6
CONTINUOUS
 62
     7
 10
171.24999999999989
 20
-38.234092499999967
 30
0.0
 11
171.24999999999989
 21
-53.234092500000003
 31
0.0
  0
LINE
  5
43
  8
HIBINO-BASE
  6
CONTINUOUS
 62
     7
 10
208.75
 20
-38.234092499999967
 30
0.0
 11
208.75
 21
-53.234092500000003
 31
0.0
  0
LINE
  5
44
  8
HIBINO-BASE
  6
CONTINUOUS
 62
     7
 10
190.0
 20
-53.234092500000003
 30
0.0
 11
190.0
 21
-38.234092499999967
 31
0.0
  0
TEXT
  5
45
  8
HIBINO-BASE
 62
     7
 10
135.03480999999999
 20
-48.938622500000022
 30
0.0
 40
2.4432617187500001
  1
'09.09.
 41
0.7
 11
135.03480999999999
 21
-46.495360781250007
 31
0.0
 73
     3
  0
TEXT
  5
46
  8
HIBINO-BASE
 62
     7
 10
126.25
 20
-50.210007500000003
 30
0.0
 40
2.4432617187500001
  1
1.5
 41
0.7
 11
126.25
 21
-47.766745781250002
 31
0.0
 73
     3
  0
TEXT
  5
47
  8
HIBINO-BASE
 62
     7
 10
173.508715016552
 20
-48.938622500000022
 30
0.0
 40
2.4432617187500001
  1
N.Sasaki
 41
0.7
 11
173.508715016552
 21
-46.495360781250007
 31
0.0
 73
     3
  0
TEXT
  5
48
  8
HIBINO-BASE
 62
     7
 10
105.825
 20
-50.270092499999983
 30
0.0
 40
4.8865234374999993
  1
A4
 41
0.7
 11
105.825
 21
-45.38356906249998
 31
0.0
 73
     3
  0
TEXT
  5
49
  8
HIBINO-BASE
 62
     7
 10
101.4375
 20
-42.163274999999999
 30
0.0
 40
2.4432617187500001
  1
PAPER SIZE
 41
0.7
 11
101.4375
 21
-39.720013281249997
 31
0.0
 73
     3
  0
LINE
  5
4A
  8
SPEC
  6
CONTINUOUS
 62
     7
 10
-23.749999999999989
 20
321.76590750000003
 30
0.0
 11
197.5
 21
321.76590750000003
 31
0.0
  0
LINE
  5
4B
  8
SPEC
  6
CONTINUOUS
 62
     7
 10
-23.749999999999989
 20
316.14090750000003
 30
0.0
 11
197.5
 21
316.14090750000003
 31
0.0
  0
LINE
  5
4C
  8
SPEC
  6
CONTINUOUS
 62
     7
 10
-23.749999999999989
 20
293.64090750000003
 30
0.0
 11
197.5
 21
293.64090750000003
 31
0.0
  0
LINE
  5
4D
  8
SPEC
  6
CONTINUOUS
 62
     7
 10
-23.749999999999989
 20
299.26590750000003
 30
0.0
 11
197.5
 21
299.26590750000003
 31
0.0
  0
LINE
  5
4E
  8
SPEC
  6
CONTINUOUS
 62
     7
 10
-23.749999999999989
 20
304.89090750000003
 30
0.0
 11
197.5
 21
304.89090750000003
 31
0.0
  0
LINE
  5
4F
  8
SPEC
  6
CONTINUOUS
 62
     7
 10
-23.749999999999989
 20
288.01590750000003
 30
0.0
 11
197.5
 21
288.01590750000003
 31
0.0
  0
LINE
  5
50
  8
SPEC
  6
CONTINUOUS
 62
     7
 10
-23.749999999999989
 20
276.76590750000003
 30
0.0
 11
197.5
 21
276.76590750000003
 31
0.0
  0
LINE
  5
51
  8
SPEC
  6
CONTINUOUS
 62
     7
 10
-23.749999999999989
 20
282.39090750000003
 30
0.0
 11
197.5
 21
282.39090750000003
 31
0.0
  0
LINE
  5
52
  8
SPEC
  6
CONTINUOUS
 62
     7
 10
-23.749999999999989
 20
271.14090750000003
 30
0.0
 11
197.5
 21
271.14090750000003
 31
0.0
  0
LINE
  5
53
  8
SPEC
  6
CONTINUOUS
 62
     7
 10
-23.749999999999989
 20
310.51590750000003
 30
0.0
 11
197.5
 21
310.51590750000003
 31
0.0
  0
TEXT
  5
54
  8
SPEC
 62
     7
 10
25.97140748522115
 20
317.43803232921408
 30
0.0
 40
2.8504720052083319
  1
コンデンサー型 
 41
0.7
 11
25.97140748522115
 21
320.2885043344225
 31
0.0
 73
     3
  0
LINE
  5
55
  8
SPEC
  6
CONTINUOUS
 62
     7
 10
-23.749999999999989
 20
321.76590750000003
 30
0.0
 11
-23.749999999999989
 21
248.62090749999999
 31
0.0
  0
TEXT
  5
56
  8
SPEC
 62
     7
 10
-21.874999999999989
 20
323.8558124999999
 30
0.0
 40
3.664892578124999
  1
仕様
 41
0.7
 11
-21.874999999999989
 21
327.52070507812488
 31
0.0
 73
     3
  0
LINE
  5
57
  8
SPEC
  6
CONTINUOUS
 62
     7
 10
25.0
 20
321.76590750000003
 30
0.0
 11
25.0
 21
248.62090749999999
 31
0.0
  0
LINE
  5
58
  8
SPEC
  6
CONTINUOUS
 62
     7
 10
197.5
 20
321.76590750000003
 30
0.0
 11
197.5
 21
248.62090749999999
 31
0.0
  0
TEXT
  5
59
  8
SPEC
 62
     7
 10
-22.49754824984981
 20
317.5336703155649
 30
0.0
 40
2.8504720052083319
  1
形式
 41
0.7
 11
-22.49754824984981
 21
320.38414232077332
 31
0.0
 73
     3
  0
TEXT
  5
5A
  8
SPEC
 62
     7
 10
-22.458528949909891
 20
311.87337101639628
 30
0.0
 40
2.8504720052083319
  1
指向特性
 41
0.7
 11
-22.458528949909891
 21
314.72384302160458
 31
0.0
 73
     3
  0
TEXT
  5
5B
  8
SPEC
 62
     7
 10
26.24779505960327
 20
312.04360801175272
 30
0.0
 40
2.8504720052083319
  1
無指向性(半球型 )
 41
0.7
 11
26.24779505960327
 21
314.89408001696108
 31
0.0
 73
     3
  0
TEXT
  5
5C
  8
SPEC
 62
     7
 10
-22.400000000000009
 20
306.27247419109551
 30
0.0
 40
2.8504720052083319
  1
周波数特性
 41
0.7
 11
-22.400000000000009
 21
309.12294619630387
 31
0.0
 73
     3
  0
TEXT
  5
5D
  8
SPEC
 62
     7
 10
26.39944807542048
 20
306.20990347432939
 30
0.0
 40
2.8504720052083319
  1
20Hz～20kHz
 41
0.7
 11
26.39944807542048
 21
309.06037547953781
 31
0.0
 73
     3
  0
TEXT
  5
5E
  8
SPEC
 62
     7
 10
-22.581660270970609
 20
300.69729883948179
 30
0.0
 40
2.8504720052083319
  1
開回路感度
 41
0.7
 11
-22.581660270970609
 21
303.54777084469009
 31
0.0
 73
     3
  0
TEXT
  5
5F
  8
SPEC
 62
     7
 10
26.42561805708576
 20
300.68119746949731
 30
0.0
 40
2.8504720052083319
  1
-32dBV  re 1V/Pa
 41
0.7
 11
26.42561805708576
 21
303.53166947470572
 31
0.0
 73
     3
  0
TEXT
  5
60
  8
SPEC
 62
     7
 10
-22.400000000000009
 20
295.08006001374719
 30
0.0
 40
2.8504720052083319
  1
最大音圧レベル
 41
0.7
 11
-22.400000000000009
 21
297.93053201895549
 31
0.0
 73
     3
  0
TEXT
  5
61
  8
SPEC
 62
     7
 10
26.161401069082409
 20
294.99638309758421
 30
0.0
 40
2.8504720052083319
  1
130dB SPL(THD 1%%%)
 41
0.7
 11
26.161401069082409
 21
297.84685510279257
 31
0.0
 73
     3
  0
TEXT
  5
62
  8
SPEC
 62
     7
 10
-22.458252978935089
 20
289.2748724648917
 30
0.0
 40
2.8504720052083319
  1
等価雑音レベル
 41
0.7
 11
-22.458252978935089
 21
292.12534447010012
 31
0.0
 73
     3
  0
TEXT
  5
63
  8
SPEC
 62
     7
 10
26.170955417438591
 20
289.40130274765852
 30
0.0
 40
2.8504720052083319
  1
16dB SPL(Aウェイト)
 41
0.7
 11
26.170955417438591
 21
292.25177475286682
 31
0.0
 73
     3
  0
TEXT
  5
64
  8
SPEC
 62
     7
 10
-22.61325801961685
 20
283.7998163716685
 30
0.0
 40
2.8504720052083319
  1
インピーダンス
 41
0.7
 11
-22.61325801961685
 21
286.6502883768768
 31
0.0
 73
     3
  0
TEXT
  5
65
  8
SPEC
 62
     7
 10
26.350000000000001
 20
283.79123075300072
 30
0.0
 40
2.8504720052083319
  1
600\U+03A9以下
 41
0.7
 11
26.350000000000001
 21
286.64170275820908
 31
0.0
 73
     3
  0
TEXT
  5
66
  8
SPEC
 62
     7
 10
-22.528942216407209
 20
278.17566859948113
 30
0.0
 40
2.8504720052083319
  1
電源
 41
0.7
 11
-22.528942216407209
 21
281.02614060468937
 31
0.0
 73
     3
  0
TEXT
  5
67
  8
SPEC
 62
     7
 10
25.90091403795336
 20
278.25459863820151
 30
0.0
 40
2.8504720052083319
  1
ファンタム DC9～52V/2mA以下
 41
0.7
 11
25.90091403795336
 21
281.10507064340982
 31
0.0
 73
     3
  0
TEXT
  5
68
  8
SPEC
 62
     7
 10
-22.805528598890639
 20
272.57744745158863
 30
0.0
 40
2.8504720052083319
  1
コネクター
 41
0.7
 11
-22.805528598890639
 21
275.42791945679687
 31
0.0
 73
     3
  0
TEXT
  5
69
  8
SPEC
 62
     7
 10
26.434203617883739
 20
272.68073438345721
 30
0.0
 40
2.8504720052083319
  1
XLR 3ピン オス
 41
0.7
 11
26.434203617883739
 21
275.53120638866551
 31
0.0
 73
     3
  0
TEXT
  5
6A
  8
SPEC
 62
     7
 10
-22.5541224424401
 20
266.91465490406682
 30
0.0
 40
2.8504720052083319
  1
ケーブル長
 41
0.7
 11
-22.5541224424401
 21
269.76512690927518
 31
0.0
 73
     3
  0
TEXT
  5
6B
  8
SPEC
 62
     7
 10
26.350000000000001
 20
266.99406843053652
 30
0.0
 40
2.8504720052083319
  1
マイク部470mm,プリアンプ部555mm
 41
0.7
 11
26.350000000000001
 21
269.84454043574488
 31
0.0
 73
     3
  0
TEXT
  5
6C
  8
SPEC
 62
     7
 10
-22.553879825488391
 20
261.35477879582947
 30
0.0
 40
2.8504720052083319
  1
寸法
 41
0.7
 11
-22.553879825488391
 21
264.20525080103778
 31
0.0
 73
     3
  0
TEXT
  5
6D
  8
SPEC
 62
     7
 10
-22.51504680256587
 20
255.75570755242711
 30
0.0
 40
2.8504720052083319
  1
重量
 41
0.7
 11
-22.51504680256587
 21
258.60617955763541
 31
0.0
 73
     3
  0
LINE
  5
6E
  8
SPEC
  6
CONTINUOUS
 62
     7
 10
-23.749999999999989
 20
265.51090749999997
 30
0.0
 11
197.5
 21
265.51090749999997
 31
0.0
  0
LINE
  5
6F
  8
SPEC
  6
CONTINUOUS
 62
     7
 10
-23.749999999999989
 20
259.88090749999998
 30
0.0
 11
197.5
 21
259.88090749999998
 31
0.0
  0
LINE
  5
70
  8
SPEC
  6
CONTINUOUS
 62
     7
 10
-23.749999999999989
 20
254.25090750000001
 30
0.0
 11
197.5
 21
254.25090750000001
 31
0.0
  0
LINE
  5
71
  8
SPEC
  6
CONTINUOUS
 62
     7
 10
-23.749999999999989
 20
248.62090749999999
 30
0.0
 11
197.5
 21
248.62090749999999
 31
0.0
  0
TEXT
  5
72
  8
SPEC
 62
     7
 10
26.02747381918795
 20
261.27774427278041
 30
0.0
 40
2.8504720052083319
  1
\U+03A620\U+00D728mm(突起部含まず)
 41
0.7
 11
26.02747381918795
 21
264.12821627798883
 31
0.0
 73
     3
  0
TEXT
  5
73
  8
SPEC
 62
     7
 10
26.153581890095161
 20
255.71495263186159
 30
0.0
 40
2.8504720052083319
  1
マイク部約32g、プリアンプ部約65g
 41
0.7
 11
26.153581890095161
 21
258.56542463707001
 31
0.0
 73
     3
  0
TEXT
  5
74
  8
SPEC
 62
     7
 10
-22.41409412440084
 20
250.2514413995203
 30
0.0
 40
2.8504720052083319
  1
付属品
 41
0.7
 11
-22.41409412440084
 21
253.10191340472861
 31
0.0
 73
     3
  0
TEXT
  5
75
  8
SPEC
 62
     7
 10
26.308538995940278
 20
250.02704482822881
 30
0.0
 40
2.8504720052083319
  1
接続ケーブル(プリアンプ付、ミニプラグとXLR)
 41
0.7
 11
26.308538995940278
 21
252.87751683343711
 31
0.0
 73
     3
  0
TEXT
  5
76
  8
DIMNSIONS
 62
     7
 10
69.999999999999986
 20
-34.829857500000003
 30
0.0
 40
3.664892578124999
  1
(単位：mm)
 41
0.7
 11
69.999999999999986
 21
-31.164964921875001
 31
0.0
 73
     3
  0
LINE
  5
77
  8
DIMNSIONS
  6
CONTINUOUS
 62
     7
 10
206.66881310256741
 20
212.7258602486545
 30
0.0
 11
206.38987267785001
 21
222.14583333333329
 31
0.0
  0
LINE
  5
78
  8
DIMNSIONS
  6
CONTINUOUS
 62
     7
 10
206.66881310256741
 20
212.7258602486545
 30
0.0
 11
205.59844366344311
 21
216.45868209090241
 31
0.0
  0
LINE
  5
79
  8
DIMNSIONS
  6
CONTINUOUS
 62
     7
 10
206.66881310256741
 20
212.7258602486545
 30
0.0
 11
207.6082568979752
 21
216.49376351140469
 31
0.0
  0
LINE
  5
7A
  8
DIMNSIONS
  6
CONTINUOUS
 62
     7
 10
206.38987267785001
 20
222.14583333333329
 30
0.0
 11
219.97320601118329
 21
222.14583333333329
 31
0.0
  0
TEXT
  5
7B
  8
DIMNSIONS
 62
     7
 10
209.38987267785001
 20
223.63666666666671
 30
0.0
 40
4.072102864583333
  1
\U+03C619
 41
0.7
 11
209.38987267785001
 21
227.70876953125
 31
0.0
 73
     3
  0
LINE
  5
7C
  8
DIMNSIONS
  6
CONTINUOUS
 62
     7
 10
185.99999999983069
 20
225.0
 30
0.0
 11
-8.75
 21
225.0
 31
0.0
  0
LINE
  5
7D
  8
DIMNSIONS
  6
CONTINUOUS
 62
     7
 10
185.99999999983069
 20
225.0
 30
0.0
 11
181.2374999998307
 21
223.72389197104681
 31
0.0
  0
LINE
  5
7E
  8
DIMNSIONS
  6
CONTINUOUS
 62
     7
 10
185.99999999983069
 20
225.0
 30
0.0
 11
181.2374999998307
 21
226.27610802895319
 31
0.0
  0
LINE
  5
7F
  8
DIMNSIONS
  6
CONTINUOUS
 62
     7
 10
185.99999999983069
 20
215.76965849294331
 30
0.0
 11
185.99999999983069
 21
228.2496584929433
 31
0.0
  0
LINE
  5
80
  8
DIMNSIONS
  6
CONTINUOUS
 62
     7
 10
-18.75
 20
215.0
 30
0.0
 11
-18.75
 21
122.5
 31
0.0
  0
LINE
  5
81
  8
DIMNSIONS
  6
CONTINUOUS
 62
     7
 10
75.0
 20
112.5
 30
0.0
 11
-8.75
 21
112.5
 31
0.0
  0
LINE
  5
82
  8
DIMNSIONS
  6
CONTINUOUS
 62
     7
 10
75.0
 20
112.5
 30
0.0
 11
70.237499999999983
 21
111.2238919710467
 31
0.0
  0
LINE
  5
83
  8
DIMNSIONS
  6
CONTINUOUS
 62
     7
 10
75.0
 20
112.5
 30
0.0
 11
70.237499999999983
 21
113.7761080289532
 31
0.0
  0
ARC
  5
84
  8
DIMNSIONS
  6
CONTINUOUS
 62
     7
 10
-8.75
 20
215.0
 30
0.0
 40
10.0
 50
90.0
 51
180.0
  0
ARC
  5
85
  8
DIMNSIONS
  6
CONTINUOUS
 62
     7
 10
-8.75
 20
122.5
 30
0.0
 40
10.0
 50
180.0
 51
270.0
  0
LINE
  5
86
  8
DIMNSIONS
  6
CONTINUOUS
 62
     7
 10
24.424729108239731
 20
58.233920666857642
 30
0.0
 11
31.5
 21
68.5
 31
0.0
  0
LINE
  5
87
  8
DIMNSIONS
  6
CONTINUOUS
 62
     7
 10
24.424729108239731
 20
58.233920666857642
 30
0.0
 11
25.752879670037149
 21
61.882984345031993
 31
0.0
  0
LINE
  5
88
  8
DIMNSIONS
  6
CONTINUOUS
 62
     7
 10
24.424729108239731
 20
58.233920666857642
 30
0.0
 11
27.39947307389405
 21
60.730027231285
 31
0.0
  0
LINE
  5
89
  8
DIMNSIONS
  6
CONTINUOUS
 62
     7
 10
31.5
 20
68.5
 30
0.0
 11
45.083333333333321
 21
68.5
 31
0.0
  0
TEXT
  5
8A
  8
DIMNSIONS
 62
     7
 10
34.5
 20
69.990833333333342
 30
0.0
 40
4.072102864583333
  1
\U+03C620
 41
0.7
 11
34.5
 21
74.06293619791667
 31
0.0
 73
     3
  0
LINE
  5
8B
  8
DIMNSIONS
  6
CONTINUOUS
 62
     7
 10
43.75
 20
37.0
 30
0.0
 11
43.75
 21
28.25
 31
0.0
  0
LINE
  5
8C
  8
DIMNSIONS
  6
CONTINUOUS
 62
     7
 10
48.75
 20
41.0
 30
0.0
 11
48.75
 21
28.25
 31
0.0
  0
LINE
  5
8D
  8
DIMNSIONS
  6
CONTINUOUS
 62
     7
 10
48.75
 20
31.25
 30
0.0
 11
43.75
 21
31.25
 31
0.0
  0
LINE
  5
8E
  8
DIMNSIONS
  6
CONTINUOUS
 62
     7
 10
43.75
 20
31.25
 30
0.0
 11
36.25
 21
31.25
 31
0.0
  0
LINE
  5
8F
  8
DIMNSIONS
  6
CONTINUOUS
 62
     7
 10
43.75
 20
31.25
 30
0.0
 11
39.999066162109372
 21
30.244940307274629
 31
0.0
  0
LINE
  5
90
  8
DIMNSIONS
  6
CONTINUOUS
 62
     7
 10
43.75
 20
31.25
 30
0.0
 11
39.999066162109372
 21
32.255059692725382
 31
0.0
  0
LINE
  5
91
  8
DIMNSIONS
  6
CONTINUOUS
 62
     7
 10
48.75
 20
31.25
 30
0.0
 11
56.25
 21
31.25
 31
0.0
  0
LINE
  5
92
  8
DIMNSIONS
  6
CONTINUOUS
 62
     7
 10
48.75
 20
31.25
 30
0.0
 11
52.500933837890642
 21
32.255059692725382
 31
0.0
  0
LINE
  5
93
  8
DIMNSIONS
  6
CONTINUOUS
 62
     7
 10
48.75
 20
31.25
 30
0.0
 11
52.500933837890642
 21
30.244940307274629
 31
0.0
  0
TEXT
  5
94
  8
DIMNSIONS
 62
     7
 10
44.927083333333343
 20
32.740833333333327
 30
0.0
 40
4.072102864583333
  1
5
 41
0.7
 11
44.927083333333343
 21
36.81293619791667
 31
0.0
 73
     3
  0
LINE
  5
95
  8
DIMNSIONS
  6
CONTINUOUS
 62
     7
 10
43.75
 20
37.0
 30
0.0
 11
43.75
 21
22.0
 31
0.0
  0
LINE
  5
96
  8
DIMNSIONS
  6
CONTINUOUS
 62
     7
 10
68.75
 20
41.0
 30
0.0
 11
68.75
 21
22.0
 31
0.0
  0
LINE
  5
97
  8
DIMNSIONS
  6
CONTINUOUS
 62
     7
 10
43.75
 20
25.0
 30
0.0
 11
68.75
 21
25.0
 31
0.0
  0
LINE
  5
98
  8
DIMNSIONS
  6
CONTINUOUS
 62
     7
 10
43.75
 20
25.0
 30
0.0
 11
47.500933837890628
 21
26.005059692725371
 31
0.0
  0
LINE
  5
99
  8
DIMNSIONS
  6
CONTINUOUS
 62
     7
 10
43.75
 20
25.0
 30
0.0
 11
47.500933837890628
 21
23.994940307274629
 31
0.0
  0
LINE
  5
9A
  8
DIMNSIONS
  6
CONTINUOUS
 62
     7
 10
68.75
 20
25.0
 30
0.0
 11
64.999066162109372
 21
23.994940307274629
 31
0.0
  0
LINE
  5
9B
  8
DIMNSIONS
  6
CONTINUOUS
 62
     7
 10
68.75
 20
25.0
 30
0.0
 11
64.999066162109372
 21
26.005059692725371
 31
0.0
  0
TEXT
  5
9C
  8
DIMNSIONS
 62
     7
 10
53.60416666666665
 20
26.490833333333342
 30
0.0
 40
4.072102864583333
  1
25
 41
0.7
 11
53.60416666666665
 21
30.56293619791667
 31
0.0
 73
     3
  0
LINE
  5
9D
  8
DIMNSIONS
  6
CONTINUOUS
 62
     7
 10
40.749999999999993
 20
47.0
 30
0.0
 11
40.749999999999993
 21
22.0
 31
0.0
  0
LINE
  5
9E
  8
DIMNSIONS
  6
CONTINUOUS
 62
     7
 10
43.75
 20
37.0
 30
0.0
 11
43.75
 21
22.0
 31
0.0
  0
LINE
  5
9F
  8
DIMNSIONS
  6
CONTINUOUS
 62
     7
 10
43.75
 20
25.0
 30
0.0
 11
40.749999999999993
 21
25.0
 31
0.0
  0
LINE
  5
A0
  8
DIMNSIONS
  6
CONTINUOUS
 62
     7
 10
40.749999999999993
 20
25.0
 30
0.0
 11
28.604166666666671
 21
25.0
 31
0.0
  0
LINE
  5
A1
  8
DIMNSIONS
  6
CONTINUOUS
 62
     7
 10
40.749999999999993
 20
25.0
 30
0.0
 11
36.999066162109372
 21
23.994940307274629
 31
0.0
  0
LINE
  5
A2
  8
DIMNSIONS
  6
CONTINUOUS
 62
     7
 10
40.749999999999993
 20
25.0
 30
0.0
 11
36.999066162109372
 21
26.005059692725371
 31
0.0
  0
LINE
  5
A3
  8
DIMNSIONS
  6
CONTINUOUS
 62
     7
 10
43.75
 20
25.0
 30
0.0
 11
51.25
 21
25.0
 31
0.0
  0
LINE
  5
A4
  8
DIMNSIONS
  6
CONTINUOUS
 62
     7
 10
43.75
 20
25.0
 30
0.0
 11
47.500933837890628
 21
26.005059692725371
 31
0.0
  0
LINE
  5
A5
  8
DIMNSIONS
  6
CONTINUOUS
 62
     7
 10
43.75
 20
25.0
 30
0.0
 11
47.500933837890628
 21
23.994940307274629
 31
0.0
  0
TEXT
  5
A6
  8
DIMNSIONS
 62
     7
 10
28.604166666666661
 20
26.490833333333342
 30
0.0
 40
4.072102864583333
  1
3
 41
0.7
 11
28.604166666666661
 21
30.56293619791667
 31
0.0
 73
     3
  0
LINE
  5
A7
  8
DIMNSIONS
  6
CONTINUOUS
 62
     7
 10
71.75
 20
44.0
 30
0.0
 11
84.25
 21
44.0
 31
0.0
  0
LINE
  5
A8
  8
DIMNSIONS
  6
CONTINUOUS
 62
     7
 10
71.75
 20
56.0
 30
0.0
 11
84.25
 21
56.0
 31
0.0
  0
LINE
  5
A9
  8
DIMNSIONS
  6
CONTINUOUS
 62
     7
 10
81.25
 20
56.0
 30
0.0
 11
81.25
 21
44.0
 31
0.0
  0
LINE
  5
AA
  8
DIMNSIONS
  6
CONTINUOUS
 62
     7
 10
81.25
 20
44.0
 30
0.0
 11
81.25
 21
36.5
 31
0.0
  0
LINE
  5
AB
  8
DIMNSIONS
  6
CONTINUOUS
 62
     7
 10
81.25
 20
44.0
 30
0.0
 11
82.255059692725368
 21
40.249066162109372
 31
0.0
  0
LINE
  5
AC
  8
DIMNSIONS
  6
CONTINUOUS
 62
     7
 10
81.25
 20
44.0
 30
0.0
 11
80.244940307274632
 21
40.249066162109372
 31
0.0
  0
LINE
  5
AD
  8
DIMNSIONS
  6
CONTINUOUS
 62
     7
 10
81.25
 20
56.0
 30
0.0
 11
81.25
 21
67.791666666666671
 31
0.0
  0
LINE
  5
AE
  8
DIMNSIONS
  6
CONTINUOUS
 62
     7
 10
81.25
 20
56.0
 30
0.0
 11
80.244940307274632
 21
59.750933837890628
 31
0.0
  0
LINE
  5
AF
  8
DIMNSIONS
  6
CONTINUOUS
 62
     7
 10
81.25
 20
56.0
 30
0.0
 11
82.255059692725368
 21
59.750933837890628
 31
0.0
  0
TEXT
  5
B0
  8
DIMNSIONS
 62
     7
 10
79.759166666666673
 20
62.5
 30
0.0
 40
4.072102864583333
  1
12
 50
90.0
 41
0.7
 11
75.687063802083344
 21
62.5
 31
0.0
 73
     3
  0
LINE
  5
B1
  8
DIMNSIONS
  6
CONTINUOUS
 62
     7
 10
68.75
 20
31.5
 30
0.0
 11
208.75
 21
31.5
 31
0.0
  0
LINE
  5
B2
  8
DIMNSIONS
  6
CONTINUOUS
 62
     7
 10
68.75
 20
31.5
 30
0.0
 11
73.512500000000003
 21
32.77610802895321
 31
0.0
  0
LINE
  5
B3
  8
DIMNSIONS
  6
CONTINUOUS
 62
     7
 10
68.75
 20
31.5
 30
0.0
 11
73.512500000000003
 21
30.22389197104679
 31
0.0
  0
LINE
  5
B4
  8
DIMNSIONS
  6
CONTINUOUS
 62
     7
 10
218.75
 20
140.25
 30
0.0
 11
218.75
 21
41.5
 31
0.0
  0
LINE
  5
B5
  8
DIMNSIONS
  6
CONTINUOUS
 62
     7
 10
208.75
 20
150.0
 30
0.0
 11
125.0
 21
150.0
 31
0.0
  0
LINE
  5
B6
  8
DIMNSIONS
  6
CONTINUOUS
 62
     7
 10
125.0
 20
150.0
 30
0.0
 11
129.76249999999999
 21
151.27610802895319
 31
0.0
  0
LINE
  5
B7
  8
DIMNSIONS
  6
CONTINUOUS
 62
     7
 10
125.0
 20
150.0
 30
0.0
 11
129.76249999999999
 21
148.72389197104681
 31
0.0
  0
TEXT
  5
B8
  8
DIMNSIONS
 62
     7
 10
137.5
 20
32.949166666666663
 30
0.0
 40
4.072102864583333
  1
470
 41
0.7
 11
137.5
 21
37.021269531249999
 31
0.0
 73
     3
  0
ARC
  5
B9
  8
DIMNSIONS
  6
CONTINUOUS
 62
     7
 10
208.75
 20
140.0
 30
0.0
 40
10.0
 50
0.0
 51
90.0
  0
ARC
  5
BA
  8
DIMNSIONS
  6
CONTINUOUS
 62
     7
 10
208.75
 20
41.5
 30
0.0
 40
10.0
 50
270.0
 51
0.0
  0
TEXT
  5
BB
  8
DIMNSIONS
 62
     7
 10
-21.177528168150829
 20
164.99430242576099
 30
0.0
 40
4.072102864583333
  1
555
 50
90.0
 41
0.7
 11
-25.249631032734161
 21
164.99430242576099
 31
0.0
 73
     3
  0
LINE
  5
BC
  8
DIMNSIONS
  6
CONTINUOUS
 62
     7
 10
75.0
 20
122.74063157175701
 30
0.0
 11
75.0
 21
110.260631571757
 31
0.0
  0
LINE
  5
BD
  8
DIMNSIONS
  6
CONTINUOUS
 62
     7
 10
125.0
 20
138.76068767457019
 30
0.0
 11
125.0
 21
151.76068767457019
 31
0.0
  0
LINE
  5
BE
  8
DIMNSIONS
  6
CONTINUOUS
 62
     7
 10
75.999999999830735
 20
195.06083824251209
 30
0.0
 11
75.999999999830735
 21
178.25
 31
0.0
  0
LINE
  5
BF
  8
DIMNSIONS
  6
CONTINUOUS
 62
     7
 10
185.99999999983069
 20
190.73002253254239
 30
0.0
 11
185.99999999983069
 21
178.25
 31
0.0
  0
LINE
  5
C0
  8
DIMNSIONS
  6
CONTINUOUS
 62
     7
 10
75.999999999830735
 20
181.25
 30
0.0
 11
185.99999999983069
 21
181.25
 31
0.0
  0
LINE
  5
C1
  8
DIMNSIONS
  6
CONTINUOUS
 62
     7
 10
75.999999999830735
 20
181.25
 30
0.0
 11
79.750933837721362
 21
182.2550596927253
 31
0.0
  0
LINE
  5
C2
  8
DIMNSIONS
  6
CONTINUOUS
 62
     7
 10
75.999999999830735
 20
181.25
 30
0.0
 11
79.750933837721362
 21
180.24494030727459
 31
0.0
  0
LINE
  5
C3
  8
DIMNSIONS
  6
CONTINUOUS
 62
     7
 10
185.99999999983069
 20
181.25
 30
0.0
 11
182.24906616194011
 21
180.24494030727459
 31
0.0
  0
LINE
  5
C4
  8
DIMNSIONS
  6
CONTINUOUS
 62
     7
 10
185.99999999983069
 20
181.25
 30
0.0
 11
182.24906616194011
 21
182.2550596927253
 31
0.0
  0
TEXT
  5
C5
  8
DIMNSIONS
 62
     7
 10
127.03124999983071
 20
182.7408333333332
 30
0.0
 40
4.072102864583333
  1
110
 41
0.7
 11
127.03124999983071
 21
186.8129361979166
 31
0.0
 73
     3
  0
TEXT
  5
C6
  8
DATA
 62
     7
 10
175.0
 20
-36.537757499999991
 30
0.0
 40
3.664892578124999
  1
C 562 CM
 41
0.7
 11
175.0
 21
-32.872864921874999
 31
0.0
 73
     3
  0
TEXT
  5
C7
  8
DATA
 62
     7
 10
175.0
 20
-25.662757499999991
 30
0.0
 40
3.664892578124999
  1
AKG
 41
0.7
 11
175.0
 21
-21.997864921874989
 31
0.0
 73
     3
  0
TEXT
  5
C8
  8
DATA
 62
     7
 10
171.24999999999989
 20
-30.72711323863502
 30
0.0
 40
2.4432655664062488
  1
ボタン型マイクロホン
 41
0.7
 11
171.24999999999989
 21
-28.28384767222877
 31
0.0
 73
     3
  0
TEXT
  5
C9
  8
DATA
 62
     7
 10
-19.999999999999979
 20
-46.87709250000001
 30
0.0
 40
2.4432617187500001
  1
仕様および外観は予告なく変更されることがありますので、ご了承ください。
 41
0.7
 11
-19.999999999999979
 21
-44.433830781250009
 31
0.0
 73
     3
  0
LINE
  5
CA
  8
DATA
  6
CONTINUOUS
 62
     7
 10
90.050147684480493
 20
210.77627108341969
 30
0.0
 11
90.050147684480493
 21
195.6837739816649
 31
0.0
  0
LINE
  5
CB
  8
DATA
  6
CONTINUOUS
 62
     7
 10
185.99999999983069
 20
212.73002253254239
 30
0.0
 11
185.99999999983069
 21
193.73002253254239
 31
0.0
  0
LINE
  5
CC
  8
DATA
  6
CONTINUOUS
 62
     7
 10
90.862647684480478
 20
203.73002253254239
 30
0.0
 11
103.55014768448051
 21
203.73002253254239
 31
0.0
  0
LINE
  5
CD
  8
DATA
  6
CONTINUOUS
 62
     7
 10
90.862647684480478
 20
202.73002253254239
 30
0.0
 11
103.55014768448051
 21
202.73002253254239
 31
0.0
  0
ARC
  5
CE
  8
DATA
  6
CONTINUOUS
 62
     7
 10
90.862647684480478
 20
203.23002253254239
 30
0.0
 40
0.5
 50
90.0
 51
270.0
  0
LINE
  5
CF
  8
DATA
  6
CONTINUOUS
 62
     7
 10
90.312384652872794
 20
209.55335174739469
 30
0.0
 11
103.55014768448051
 21
210.71150594310291
 31
0.0
  0
LINE
  5
D0
  8
DATA
  6
CONTINUOUS
 62
     7
 10
90.766904130544845
 20
210.09502696781439
 30
0.0
 11
103.55014768448051
 21
211.21341586187461
 31
0.0
  0
ARC
  5
D1
  8
DATA
  6
CONTINUOUS
 62
     7
 10
90.810482001918643
 20
209.59692961876851
 30
0.0
 40
0.500000000000005
 50
94.999999999999758
 51
184.9999999999998
  0
LINE
  5
D2
  8
DATA
  6
CONTINUOUS
 62
     7
 10
125.99999999983049
 20
212.73002253254239
 30
0.0
 11
125.99999999983049
 21
193.73002253254239
 31
0.0
  0
LINE
  5
D3
  8
DATA
  6
CONTINUOUS
 62
     7
 10
75.999999999830735
 20
208.39920682257249
 30
0.0
 11
90.050147684480493
 21
210.77627108341969
 31
0.0
  0
LINE
  5
D4
  8
DATA
  6
CONTINUOUS
 62
     7
 10
90.050147684480493
 20
210.77627108341969
 30
0.0
 11
114.99999999983049
 21
212.48002253254239
 31
0.0
  0
LINE
  5
D5
  8
DATA
  6
CONTINUOUS
 62
     7
 10
75.999999999830735
 20
198.06083824251209
 30
0.0
 11
90.050147684480493
 21
195.6837739816649
 31
0.0
  0
LINE
  5
D6
  8
DATA
  6
CONTINUOUS
 62
     7
 10
114.99999999983049
 20
193.98002253254239
 30
0.0
 11
90.050147684480493
 21
195.6837739816649
 31
0.0
  0
LINE
  5
D7
  8
DATA
  6
CONTINUOUS
 62
     7
 10
90.312384652872794
 20
196.90669331769001
 30
0.0
 11
103.55014768448051
 21
195.74853912198171
 31
0.0
  0
LINE
  5
D8
  8
DATA
  6
CONTINUOUS
 62
     7
 10
90.766904130544845
 20
196.36501809727019
 30
0.0
 11
103.55014768448051
 21
195.24662920321001
 31
0.0
  0
ARC
  5
D9
  8
DATA
  6
CONTINUOUS
 62
     7
 10
90.810482001918643
 20
196.8631154463161
 30
0.0
 40
0.4999999999999981
 50
175.00000000000011
 51
265.00000000000028
  0
LINE
  5
DA
  8
DATA
  6
CONTINUOUS
 62
     7
 10
103.55014768448051
 20
211.698146061774
 30
0.0
 11
103.55014768448051
 21
194.7618990033107
 31
0.0
  0
LINE
  5
DB
  8
DATA
  6
CONTINUOUS
 62
     7
 10
90.844830978948295
 20
207.09005127821121
 30
0.0
 11
103.51494320114701
 21
207.7540637230436
 31
0.0
  0
LINE
  5
DC
  8
DATA
  6
CONTINUOUS
 62
     7
 10
90.897166935191294
 20
206.09142174345661
 30
0.0
 11
103.5672791573899
 21
206.75543418828889
 31
0.0
  0
ARC
  5
DD
  8
DATA
  6
CONTINUOUS
 62
     7
 10
90.870998957069801
 20
206.59073651083389
 30
0.0
 40
0.4999999999999981
 50
92.999999999999105
 51
273.00000000000068
  0
LINE
  5
DE
  8
DATA
  6
CONTINUOUS
 62
     7
 10
90.844830978948295
 20
199.36999378687341
 30
0.0
 11
103.51494320114701
 21
198.7059813420411
 31
0.0
  0
LINE
  5
DF
  8
DATA
  6
CONTINUOUS
 62
     7
 10
90.897166935191294
 20
200.36862332162801
 30
0.0
 11
103.5672791573899
 21
199.7046108767957
 31
0.0
  0
ARC
  5
E0
  8
DATA
  6
CONTINUOUS
 62
     7
 10
90.870998957069801
 20
199.86930855425069
 30
0.0
 40
0.4999999999999988
 50
86.999999999999304
 51
267.0000000000008
  0
LINE
  5
E1
  8
DATA
  6
CONTINUOUS
 62
     7
 10
104.5999999998306
 20
194.69020770105229
 30
0.0
 11
104.5999999998306
 21
211.76983736403241
 31
0.0
  0
LINE
  5
E2
  8
DATA
  6
CONTINUOUS
 62
     7
 10
106.5999999998305
 20
194.553633630185
 30
0.0
 11
106.5999999998305
 21
211.9064114348997
 31
0.0
  0
LINE
  5
E3
  8
DATA
  6
CONTINUOUS
 62
     7
 10
108.5999999998305
 20
194.41705955931769
 30
0.0
 11
108.5999999998305
 21
212.04298550576701
 31
0.0
  0
LINE
  5
E4
  8
DATA
  6
CONTINUOUS
 62
     7
 10
110.5999999998305
 20
194.28048548845041
 30
0.0
 11
110.5999999998305
 21
212.17955957663429
 31
0.0
  0
LINE
  5
E5
  8
DATA
  6
CONTINUOUS
 62
     7
 10
112.5999999998305
 20
194.1439114175831
 30
0.0
 11
112.5999999998305
 21
212.3161336475016
 31
0.0
  0
LINE
  5
E6
  8
DATA
  6
CONTINUOUS
 62
     7
 10
114.5999999998305
 20
194.0073373467157
 30
0.0
 11
114.5999999998305
 21
212.45270771836891
 31
0.0
  0
LINE
  5
E7
  8
DATA
  6
CONTINUOUS
 62
     7
 10
116.5999999998305
 20
193.9436588961787
 30
0.0
 11
116.5999999998305
 21
212.516386168906
 31
0.0
  0
LINE
  5
E8
  8
DATA
  6
CONTINUOUS
 62
     7
 10
118.5999999998305
 20
193.89820435072409
 30
0.0
 11
118.5999999998305
 21
212.5618407143605
 31
0.0
  0
LINE
  5
E9
  8
DATA
  6
CONTINUOUS
 62
     7
 10
120.5999999998305
 20
193.85274980526961
 30
0.0
 11
120.5999999998305
 21
212.607295259815
 31
0.0
  0
LINE
  5
EA
  8
DATA
  6
CONTINUOUS
 62
     7
 10
122.5999999998306
 20
193.80729525981499
 30
0.0
 11
122.5999999998306
 21
212.65274980526959
 31
0.0
  0
LINE
  5
EB
  8
DATA
  6
CONTINUOUS
 62
     7
 10
124.5999999998306
 20
193.7618407143604
 30
0.0
 11
124.5999999998306
 21
212.69820435072421
 31
0.0
  0
CIRCLE
  5
EC
  8
DATA
  6
CONTINUOUS
 62
     7
 10
168.99999999983069
 20
203.23002253254239
 30
0.0
 40
2.4000000000000048
  0
LINE
  5
ED
  8
DATA
  6
CONTINUOUS
 62
     7
 10
168.143650220788
 20
202.37367275349959
 30
0.0
 11
169.85634977887349
 21
204.08637231158511
 31
0.0
  0
LINE
  5
EE
  8
DATA
  6
CONTINUOUS
 62
     7
 10
169.85634977887349
 20
202.37367275349959
 30
0.0
 11
168.143650220788
 21
204.08637231158511
 31
0.0
  0
LINE
  5
EF
  8
DATA
  6
CONTINUOUS
 62
     7
 10
184.3999999998307
 20
206.23002253254239
 30
0.0
 11
184.3999999998307
 21
200.23002253254239
 31
0.0
  0
LINE
  5
F0
  8
DATA
  6
CONTINUOUS
 62
     7
 10
182.49999999983069
 20
206.23002253254239
 30
0.0
 11
182.49999999983069
 21
200.23002253254239
 31
0.0
  0
LINE
  5
F1
  8
DATA
  6
CONTINUOUS
 62
     7
 10
182.49999999983069
 20
206.23002253254239
 30
0.0
 11
184.3999999998307
 21
206.23002253254239
 31
0.0
  0
LINE
  5
F2
  8
DATA
  6
CONTINUOUS
 62
     7
 10
182.49999999983069
 20
200.23002253254239
 30
0.0
 11
184.3999999998307
 21
200.23002253254239
 31
0.0
  0
ARC
  5
F3
  8
DATA
  6
CONTINUOUS
 62
     7
 10
177.7529266953494
 20
203.23002253254239
 30
0.0
 40
3.0
 50
90.0
 51
270.0
  0
LINE
  5
F4
  8
DATA
  6
CONTINUOUS
 62
     7
 10
177.7529266953494
 20
206.23002253254239
 30
0.0
 11
182.49999999983069
 21
206.23002253254239
 31
0.0
  0
LINE
  5
F5
  8
DATA
  6
CONTINUOUS
 62
     7
 10
177.7529266953494
 20
200.23002253254239
 30
0.0
 11
182.49999999983069
 21
200.23002253254239
 31
0.0
  0
LINE
  5
F6
  8
DATA
  6
CONTINUOUS
 62
     7
 10
176.94999999983071
 20
201.08002253254239
 30
0.0
 11
181.24999999983069
 21
203.23002253254239
 31
0.0
  0
LINE
  5
F7
  8
DATA
  6
CONTINUOUS
 62
     7
 10
181.24999999983069
 20
203.23002253254239
 30
0.0
 11
176.94999999983071
 21
205.3800225325424
 31
0.0
  0
LINE
  5
F8
  8
DATA
  6
CONTINUOUS
 62
     7
 10
176.94999999983071
 20
201.08002253254239
 30
0.0
 11
176.94999999983071
 21
205.3800225325424
 31
0.0
  0
LINE
  5
F9
  8
DATA
  6
CONTINUOUS
 62
     7
 10
185.99999999983069
 20
212.73002253254239
 30
0.0
 11
125.99999999983049
 21
212.73002253254239
 31
0.0
  0
LINE
  5
FA
  8
DATA
  6
CONTINUOUS
 62
     7
 10
185.99999999983069
 20
193.73002253254239
 30
0.0
 11
125.99999999983049
 21
193.73002253254239
 31
0.0
  0
LINE
  5
FB
  8
DATA
  6
CONTINUOUS
 62
     7
 10
114.99999999983049
 20
212.48002253254239
 30
0.0
 11
125.99999999983049
 21
212.73002253254239
 31
0.0
  0
LINE
  5
FC
  8
DATA
  6
CONTINUOUS
 62
     7
 10
125.99999999983049
 20
193.73002253254239
 30
0.0
 11
114.99999999983049
 21
193.98002253254239
 31
0.0
  0
CIRCLE
  5
FD
  8
DATA
  6
CONTINUOUS
 62
     7
 10
206.94999999999999
 20
203.23002253254239
 30
0.0
 40
9.5
  0
LINE
  5
FE
  8
DATA
  6
CONTINUOUS
 62
     7
 10
1.2499999999999849
 20
204.48002253254239
 30
0.0
 11
75.999999999830735
 21
204.48002253254239
 31
0.0
  0
LINE
  5
FF
  8
DATA
  6
CONTINUOUS
 62
     7
 10
3.7499999999999849
 20
201.98002253254239
 30
0.0
 11
75.999999999830735
 21
201.98002253254239
 31
0.0
  0
CIRCLE
  5
100
  8
DATA
  6
CONTINUOUS
 62
     7
 10
206.94999999999999
 20
203.23002253254239
 30
0.0
 40
8.1500000000000057
  0
CIRCLE
  5
101
  8
DATA
  6
CONTINUOUS
 62
     7
 10
206.94999999999999
 20
199.23002253254239
 30
0.0
 40
1.150000000000005
  0
CIRCLE
  5
102
  8
DATA
  6
CONTINUOUS
 62
     7
 10
202.94999999999999
 20
203.23002253254239
 30
0.0
 40
1.150000000000005
  0
CIRCLE
  5
103
  8
DATA
  6
CONTINUOUS
 62
     7
 10
210.94999999999999
 20
203.23002253254239
 30
0.0
 40
1.150000000000005
  0
LINE
  5
104
  8
DATA
  6
CONTINUOUS
 62
     7
 10
45.0
 20
125.7398577012584
 30
0.0
 11
45.0
 21
136.73985770125839
 31
0.0
  0
LINE
  5
105
  8
DATA
  6
CONTINUOUS
 62
     7
 10
75.0
 20
125.7398577012584
 30
0.0
 11
71.0
 21
125.7398577012584
 31
0.0
  0
LINE
  5
106
  8
DATA
  6
CONTINUOUS
 62
     7
 10
68.0
 20
125.7398577012584
 30
0.0
 11
45.0
 21
125.7398577012584
 31
0.0
  0
LINE
  5
107
  8
DATA
  6
CONTINUOUS
 62
     7
 10
75.0
 20
136.73985770125839
 30
0.0
 11
75.0
 21
125.7398577012584
 31
0.0
  0
LINE
  5
108
  8
DATA
  6
CONTINUOUS
 62
     7
 10
45.0
 20
136.73985770125839
 30
0.0
 11
55.0
 21
136.73985770125839
 31
0.0
  0
LINE
  5
109
  8
DATA
  6
CONTINUOUS
 62
     7
 10
62.202450783347089
 20
136.73985770125839
 30
0.0
 11
68.0
 21
136.73985770125839
 31
0.0
  0
LINE
  5
10A
  8
DATA
  6
CONTINUOUS
 62
     7
 10
71.0
 20
136.73985770125839
 30
0.0
 11
75.0
 21
136.73985770125839
 31
0.0
  0
LINE
  5
10B
  8
DATA
  6
CONTINUOUS
 62
     7
 10
71.0
 20
137.23985770125839
 30
0.0
 11
71.0
 21
125.2398577012584
 31
0.0
  0
LINE
  5
10C
  8
DATA
  6
CONTINUOUS
 62
     7
 10
68.0
 20
137.23985770125839
 30
0.0
 11
68.0
 21
125.2398577012584
 31
0.0
  0
LINE
  5
10D
  8
DATA
  6
CONTINUOUS
 62
     7
 10
71.0
 20
137.23985770125839
 30
0.0
 11
68.0
 21
137.23985770125839
 31
0.0
  0
LINE
  5
10E
  8
DATA
  6
CONTINUOUS
 62
     7
 10
71.0
 20
125.2398577012584
 30
0.0
 11
68.0
 21
125.2398577012584
 31
0.0
  0
LINE
  5
10F
  8
DATA
  6
CONTINUOUS
 62
     7
 10
13.0
 20
133.23985770125839
 30
0.0
 11
13.0
 21
129.23985770125839
 31
0.0
  0
LINE
  5
110
  8
DATA
  6
CONTINUOUS
 62
     7
 10
45.0
 20
136.73985770125839
 30
0.0
 11
43.0
 21
135.63985770125839
 31
0.0
  0
LINE
  5
111
  8
DATA
  6
CONTINUOUS
 62
     7
 10
43.0
 20
135.63985770125839
 30
0.0
 11
40.0
 21
135.63985770125839
 31
0.0
  0
LINE
  5
112
  8
DATA
  6
CONTINUOUS
 62
     7
 10
43.0
 20
126.8398577012584
 30
0.0
 11
40.0
 21
126.8398577012584
 31
0.0
  0
LINE
  5
113
  8
DATA
  6
CONTINUOUS
 62
     7
 10
45.0
 20
125.7398577012584
 30
0.0
 11
43.0
 21
126.8398577012584
 31
0.0
  0
LINE
  5
114
  8
DATA
  6
CONTINUOUS
 62
     7
 10
40.0
 20
126.8398577012584
 30
0.0
 11
40.0
 21
135.63985770125839
 31
0.0
  0
LINE
  5
115
  8
DATA
  6
CONTINUOUS
 62
     7
 10
40.0
 20
135.63985770125839
 30
0.0
 11
29.0
 21
135.63985770125839
 31
0.0
  0
LINE
  5
116
  8
DATA
  6
CONTINUOUS
 62
     7
 10
40.0
 20
126.8398577012584
 30
0.0
 11
29.0
 21
126.8398577012584
 31
0.0
  0
LINE
  5
117
  8
DATA
  6
CONTINUOUS
 62
     7
 10
29.0
 20
135.63985770125839
 30
0.0
 11
13.0
 21
133.23985770125839
 31
0.0
  0
LINE
  5
118
  8
DATA
  6
CONTINUOUS
 62
     7
 10
29.0
 20
126.8398577012584
 30
0.0
 11
13.0
 21
129.23985770125839
 31
0.0
  0
LINE
  5
119
  8
DATA
  6
CONTINUOUS
 62
     7
 10
68.0
 20
137.23985770125839
 30
0.0
 11
61.0717967697245
 21
141.23985770125839
 31
0.0
  0
LINE
  5
11A
  8
DATA
  6
CONTINUOUS
 62
     7
 10
57.0
 20
139.89844829092641
 30
0.0
 11
57.0
 21
140.1998577012584
 31
0.0
  0
LINE
  5
11B
  8
DATA
  6
CONTINUOUS
 62
     7
 10
55.0
 20
136.73985770125839
 30
0.0
 11
55.95000000000001
 21
135.7898577012584
 31
0.0
  0
ARC
  5
11C
  8
DATA
  6
CONTINUOUS
 62
     7
 10
61.202450783347103
 20
139.21612433431409
 30
0.0
 40
0.9999999999999857
 50
0.0000000000002274
 51
190.15237674949219
  0
LINE
  5
11D
  8
DATA
  6
CONTINUOUS
 62
     7
 10
57.0
 20
140.1998577012584
 30
0.0
 11
60.010000000000012
 21
141.23985770125839
 31
0.0
  0
LINE
  5
11E
  8
DATA
  6
CONTINUOUS
 62
     7
 10
60.218108325626211
 20
139.0398577012584
 30
0.0
 11
57.0
 21
139.89844829092641
 31
0.0
  0
LINE
  5
11F
  8
DATA
  6
CONTINUOUS
 62
     7
 10
62.202450783347089
 20
139.21612433431409
 30
0.0
 11
62.202450783347089
 21
135.7898577012584
 31
0.0
  0
LINE
  5
120
  8
DATA
  6
CONTINUOUS
 62
     7
 10
55.95000000000001
 20
135.7898577012584
 30
0.0
 11
62.202450783347089
 21
135.7898577012584
 31
0.0
  0
LINE
  5
121
  8
DATA
  6
CONTINUOUS
 62
     7
 10
61.0717967697245
 20
141.23985770125839
 30
0.0
 11
59.969999999999992
 21
141.23985770125839
 31
0.0
  0
LINE
  5
122
  8
DATA
  6
CONTINUOUS
 62
     7
 10
38.5
 20
126.8398577012584
 30
0.0
 11
38.5
 21
135.63985770125839
 31
0.0
  0
LINE
  5
123
  8
DATA
  6
CONTINUOUS
 62
     7
 10
37.0
 20
126.8398577012584
 30
0.0
 11
37.0
 21
135.63985770125839
 31
0.0
  0
LINE
  5
124
  8
DATA
  6
CONTINUOUS
 62
     7
 10
35.5
 20
126.8398577012584
 30
0.0
 11
35.5
 21
135.63985770125839
 31
0.0
  0
LINE
  5
125
  8
DATA
  6
CONTINUOUS
 62
     7
 10
34.0
 20
126.8398577012584
 30
0.0
 11
34.0
 21
135.63985770125839
 31
0.0
  0
LINE
  5
126
  8
DATA
  6
CONTINUOUS
 62
     7
 10
32.5
 20
126.8398577012584
 30
0.0
 11
32.5
 21
135.63985770125839
 31
0.0
  0
LINE
  5
127
  8
DATA
  6
CONTINUOUS
 62
     7
 10
31.0
 20
126.8398577012584
 30
0.0
 11
31.0
 21
135.63985770125839
 31
0.0
  0
LINE
  5
128
  8
DATA
  6
CONTINUOUS
 62
     7
 10
29.5
 20
126.8398577012584
 30
0.0
 11
29.5
 21
135.63985770125839
 31
0.0
  0
LINE
  5
129
  8
DATA
  6
CONTINUOUS
 62
     7
 10
28.0
 20
126.9898577012584
 30
0.0
 11
28.0
 21
135.48985770125839
 31
0.0
  0
LINE
  5
12A
  8
DATA
  6
CONTINUOUS
 62
     7
 10
26.5
 20
127.2148577012584
 30
0.0
 11
26.5
 21
135.26485770125839
 31
0.0
  0
LINE
  5
12B
  8
DATA
  6
CONTINUOUS
 62
     7
 10
25.0
 20
127.4398577012584
 30
0.0
 11
25.0
 21
135.0398577012584
 31
0.0
  0
LINE
  5
12C
  8
DATA
  6
CONTINUOUS
 62
     7
 10
23.5
 20
127.6648577012584
 30
0.0
 11
23.5
 21
134.8148577012584
 31
0.0
  0
LINE
  5
12D
  8
DATA
  6
CONTINUOUS
 62
     7
 10
22.0
 20
127.88985770125841
 30
0.0
 11
22.0
 21
134.58985770125841
 31
0.0
  0
LINE
  5
12E
  8
DATA
  6
CONTINUOUS
 62
     7
 10
20.5
 20
128.11485770125839
 30
0.0
 11
20.5
 21
134.36485770125839
 31
0.0
  0
LINE
  5
12F
  8
DATA
  6
CONTINUOUS
 62
     7
 10
19.0
 20
128.33985770125841
 30
0.0
 11
19.0
 21
134.13985770125839
 31
0.0
  0
LINE
  5
130
  8
DATA
  6
CONTINUOUS
 62
     7
 10
17.5
 20
128.5648577012584
 30
0.0
 11
17.5
 21
133.9148577012584
 31
0.0
  0
LINE
  5
131
  8
DATA
  6
CONTINUOUS
 62
     7
 10
16.0
 20
128.7898577012584
 30
0.0
 11
16.0
 21
133.6898577012584
 31
0.0
  0
LINE
  5
132
  8
DATA
  6
CONTINUOUS
 62
     7
 10
14.5
 20
129.01485770125839
 30
0.0
 11
14.5
 21
133.46485770125841
 31
0.0
  0
CIRCLE
  5
133
  8
DATA
  6
CONTINUOUS
 62
     7
 10
87.5
 20
131.23985770125839
 30
0.0
 40
5.5
  0
CIRCLE
  5
134
  8
DATA
  6
CONTINUOUS
 62
     7
 10
87.5
 20
131.23985770125839
 30
0.0
 40
6.0
  0
CIRCLE
  5
135
  8
DATA
  6
CONTINUOUS
 62
     7
 10
87.5
 20
131.23985770125839
 30
0.0
 40
1.75
  0
LINE
  5
136
  8
DATA
  6
CONTINUOUS
 62
     7
 10
86.5
 20
141.23985770125839
 30
0.0
 11
88.499999999999986
 21
141.23985770125839
 31
0.0
  0
LINE
  5
137
  8
DATA
  6
CONTINUOUS
 62
     7
 10
85.0
 20
136.69421375857621
 30
0.0
 11
85.0
 21
140.0398577012584
 31
0.0
  0
LINE
  5
138
  8
DATA
  6
CONTINUOUS
 62
     7
 10
90.0
 20
140.0398577012584
 30
0.0
 11
90.0
 21
136.69421375857621
 31
0.0
  0
LINE
  5
139
  8
DATA
  6
CONTINUOUS
 62
     7
 10
86.5
 20
137.15593748435799
 30
0.0
 11
86.5
 21
141.23985770125839
 31
0.0
  0
LINE
  5
13A
  8
DATA
  6
CONTINUOUS
 62
     7
 10
88.499999999999986
 20
141.23985770125839
 30
0.0
 11
88.499999999999986
 21
137.15593748435799
 31
0.0
  0
LINE
  5
13B
  8
DATA
  6
CONTINUOUS
 62
     7
 10
85.0
 20
140.0398577012584
 30
0.0
 11
86.5
 21
140.0398577012584
 31
0.0
  0
LINE
  5
13C
  8
DATA
  6
CONTINUOUS
 62
     7
 10
88.499999999999986
 20
140.0398577012584
 30
0.0
 11
90.0
 21
140.0398577012584
 31
0.0
  0
CIRCLE
  5
13D
  8
DATA
  6
CONTINUOUS
 62
     7
 10
18.75
 20
50.0
 30
0.0
 40
10.0
  0
CIRCLE
  5
13E
  8
DATA
  6
CONTINUOUS
 62
     7
 10
17.25
 20
51.5
 30
0.0
 40
0.9500000000000028
  0
CIRCLE
  5
13F
  8
DATA
  6
CONTINUOUS
 62
     7
 10
20.25
 20
51.5
 30
0.0
 40
0.9500000000000028
  0
CIRCLE
  5
140
  8
DATA
  6
CONTINUOUS
 62
     7
 10
17.25
 20
48.5
 30
0.0
 40
0.9500000000000028
  0
CIRCLE
  5
141
  8
DATA
  6
CONTINUOUS
 62
     7
 10
20.25
 20
48.5
 30
0.0
 40
0.9500000000000028
  0
LINE
  5
142
  8
DATA
  6
CONTINUOUS
 62
     7
 10
43.75
 20
40.0
 30
0.0
 11
43.75
 21
60.0
 31
0.0
  0
LINE
  5
143
  8
DATA
  6
CONTINUOUS
 62
     7
 10
41.549999999999997
 20
60.0
 30
0.0
 11
43.75
 21
60.0
 31
0.0
  0
LINE
  5
144
  8
DATA
  6
CONTINUOUS
 62
     7
 10
41.549999999999997
 20
40.0
 30
0.0
 11
43.75
 21
40.0
 31
0.0
  0
LINE
  5
145
  8
DATA
  6
CONTINUOUS
 62
     7
 10
41.549999999999997
 20
40.0
 30
0.0
 11
41.549999999999997
 21
60.0
 31
0.0
  0
LINE
  5
146
  8
DATA
  6
CONTINUOUS
 62
     7
 10
68.75
 20
44.0
 30
0.0
 11
56.75
 21
44.0
 31
0.0
  0
LINE
  5
147
  8
DATA
  6
CONTINUOUS
 62
     7
 10
53.75
 20
44.0
 30
0.0
 11
43.75
 21
44.0
 31
0.0
  0
LINE
  5
148
  8
DATA
  6
CONTINUOUS
 62
     7
 10
43.75
 20
56.0
 30
0.0
 11
53.75
 21
56.0
 31
0.0
  0
LINE
  5
149
  8
DATA
  6
CONTINUOUS
 62
     7
 10
56.75
 20
56.0
 30
0.0
 11
68.75
 21
56.0
 31
0.0
  0
LINE
  5
14A
  8
DATA
  6
CONTINUOUS
 62
     7
 10
68.75
 20
44.0
 30
0.0
 11
68.75
 21
56.0
 31
0.0
  0
LINE
  5
14B
  8
DATA
  6
CONTINUOUS
 62
     7
 10
48.75
 20
44.0
 30
0.0
 11
48.75
 21
56.0
 31
0.0
  0
LINE
  5
14C
  8
DATA
  6
CONTINUOUS
 62
     7
 10
53.75
 20
40.050000000000011
 30
0.0
 11
53.75
 21
59.950000000000003
 31
0.0
  0
LINE
  5
14D
  8
DATA
  6
CONTINUOUS
 62
     7
 10
56.75
 20
40.050000000000011
 30
0.0
 11
56.75
 21
59.950000000000003
 31
0.0
  0
LINE
  5
14E
  8
DATA
  6
CONTINUOUS
 62
     7
 10
53.75
 20
59.950000000000003
 30
0.0
 11
56.75
 21
59.950000000000003
 31
0.0
  0
LINE
  5
14F
  8
DATA
  6
CONTINUOUS
 62
     7
 10
53.75
 20
40.050000000000011
 30
0.0
 11
56.75
 21
40.050000000000011
 31
0.0
  0
LINE
  5
150
  8
DATA
  6
CONTINUOUS
 62
     7
 10
53.75
 20
41.350000000000001
 30
0.0
 11
56.75
 21
41.350000000000001
 31
0.0
  0
LINE
  5
151
  8
DATA
  6
CONTINUOUS
 62
     7
 10
53.75
 20
42.650000000000013
 30
0.0
 11
56.75
 21
42.650000000000013
 31
0.0
  0
LINE
  5
152
  8
DATA
  6
CONTINUOUS
 62
     7
 10
53.75
 20
43.950000000000017
 30
0.0
 11
56.75
 21
43.950000000000017
 31
0.0
  0
LINE
  5
153
  8
DATA
  6
CONTINUOUS
 62
     7
 10
53.75
 20
45.250000000000021
 30
0.0
 11
56.75
 21
45.250000000000021
 31
0.0
  0
LINE
  5
154
  8
DATA
  6
CONTINUOUS
 62
     7
 10
53.75
 20
46.550000000000011
 30
0.0
 11
56.75
 21
46.550000000000011
 31
0.0
  0
LINE
  5
155
  8
DATA
  6
CONTINUOUS
 62
     7
 10
53.75
 20
47.850000000000009
 30
0.0
 11
56.75
 21
47.850000000000009
 31
0.0
  0
LINE
  5
156
  8
DATA
  6
CONTINUOUS
 62
     7
 10
53.75
 20
49.150000000000013
 30
0.0
 11
56.75
 21
49.150000000000013
 31
0.0
  0
LINE
  5
157
  8
DATA
  6
CONTINUOUS
 62
     7
 10
53.75
 20
50.45000000000001
 30
0.0
 11
56.75
 21
50.45000000000001
 31
0.0
  0
LINE
  5
158
  8
DATA
  6
CONTINUOUS
 62
     7
 10
53.75
 20
51.750000000000021
 30
0.0
 11
56.75
 21
51.750000000000021
 31
0.0
  0
LINE
  5
159
  8
DATA
  6
CONTINUOUS
 62
     7
 10
53.75
 20
53.050000000000011
 30
0.0
 11
56.75
 21
53.050000000000011
 31
0.0
  0
LINE
  5
15A
  8
DATA
  6
CONTINUOUS
 62
     7
 10
53.75
 20
54.350000000000009
 30
0.0
 11
56.75
 21
54.350000000000009
 31
0.0
  0
LINE
  5
15B
  8
DATA
  6
CONTINUOUS
 62
     7
 10
53.75
 20
55.65000000000002
 30
0.0
 11
56.75
 21
55.65000000000002
 31
0.0
  0
LINE
  5
15C
  8
DATA
  6
CONTINUOUS
 62
     7
 10
53.75
 20
56.950000000000017
 30
0.0
 11
56.75
 21
56.950000000000017
 31
0.0
  0
LINE
  5
15D
  8
DATA
  6
CONTINUOUS
 62
     7
 10
53.75
 20
58.250000000000021
 30
0.0
 11
56.75
 21
58.250000000000021
 31
0.0
  0
LINE
  5
15E
  8
DATA
  6
CONTINUOUS
 62
     7
 10
53.75
 20
59.550000000000011
 30
0.0
 11
56.75
 21
59.550000000000011
 31
0.0
  0
LINE
  5
15F
  8
DATA
  6
CONTINUOUS
 62
     7
 10
48.75
 20
56.0
 30
0.0
 11
49.140000000000001
 21
44.0
 31
0.0
  0
LINE
  5
160
  8
DATA
  6
CONTINUOUS
 62
     7
 10
49.75
 20
56.0
 30
0.0
 11
50.140000000000001
 21
44.0
 31
0.0
  0
LINE
  5
161
  8
DATA
  6
CONTINUOUS
 62
     7
 10
50.75
 20
56.0
 30
0.0
 11
51.140000000000001
 21
44.0
 31
0.0
  0
LINE
  5
162
  8
DATA
  6
CONTINUOUS
 62
     7
 10
51.75
 20
56.0
 30
0.0
 11
52.140000000000001
 21
44.0
 31
0.0
  0
LINE
  5
163
  8
DATA
  6
CONTINUOUS
 62
     7
 10
52.75
 20
56.0
 30
0.0
 11
53.140000000000001
 21
44.0
 31
0.0
  0
LINE
  5
164
  8
DATA
  6
CONTINUOUS
 62
     7
 10
56.926702413509219
 20
56.0
 30
0.0
 11
57.316702413509219
 21
44.0
 31
0.0
  0
LINE
  5
165
  8
DATA
  6
CONTINUOUS
 62
     7
 10
57.926702413509219
 20
56.0
 30
0.0
 11
58.316702413509219
 21
44.0
 31
0.0
  0
LINE
  5
166
  8
DATA
  6
CONTINUOUS
 62
     7
 10
58.926702413509219
 20
56.0
 30
0.0
 11
59.316702413509212
 21
44.0
 31
0.0
  0
LINE
  5
167
  8
DATA
  6
CONTINUOUS
 62
     7
 10
59.926702413509211
 20
56.0
 30
0.0
 11
60.316702413509219
 21
44.0
 31
0.0
  0
LINE
  5
168
  8
DATA
  6
CONTINUOUS
 62
     7
 10
60.926702413509219
 20
56.0
 30
0.0
 11
61.316702413509219
 21
44.0
 31
0.0
  0
LINE
  5
169
  8
DATA
  6
CONTINUOUS
 62
     7
 10
61.926702413509219
 20
56.0
 30
0.0
 11
62.316702413509219
 21
44.0
 31
0.0
  0
LINE
  5
16A
  8
DATA
  6
CONTINUOUS
 62
     7
 10
62.926702413509219
 20
56.0
 30
0.0
 11
63.316702413509219
 21
44.0
 31
0.0
  0
LINE
  5
16B
  8
DATA
  6
CONTINUOUS
 62
     7
 10
63.926702413509219
 20
56.0
 30
0.0
 11
64.316702413509205
 21
44.0
 31
0.0
  0
LINE
  5
16C
  8
DATA
  6
CONTINUOUS
 62
     7
 10
64.926702413509204
 20
56.0
 30
0.0
 11
65.316702413509219
 21
44.0
 31
0.0
  0
LINE
  5
16D
  8
DATA
  6
CONTINUOUS
 62
     7
 10
65.926702413509219
 20
56.0
 30
0.0
 11
66.316702413509219
 21
44.0
 31
0.0
  0
LINE
  5
16E
  8
DATA
  6
CONTINUOUS
 62
     7
 10
66.926702413509219
 20
56.0
 30
0.0
 11
67.316702413509219
 21
44.0
 31
0.0
  0
LINE
  5
16F
  8
DATA
  6
CONTINUOUS
 62
     7
 10
67.926702413509219
 20
56.0
 30
0.0
 11
68.316702413509219
 21
44.0
 31
0.0
  0
CIRCLE
  5
170
  8
DATA
  6
CONTINUOUS
 62
     7
 10
118.6499999999
 20
131.26068767457019
 30
0.0
 40
4.5
  0
CIRCLE
  5
171
  8
DATA
  6
CONTINUOUS
 62
     7
 10
118.6499999999
 20
131.26068767457019
 30
0.0
 40
1.734999999999999
  0
CIRCLE
  5
172
  8
DATA
  6
CONTINUOUS
 62
     7
 10
118.6499999999
 20
131.26068767457019
 30
0.0
 40
1.5
  0
LINE
  5
173
  8
DATA
  6
CONTINUOUS
 62
     7
 10
125.0
 20
131.76068767457019
 30
0.0
 11
125.0
 21
130.76068767457019
 31
0.0
  0
LINE
  5
174
  8
DATA
  6
CONTINUOUS
 62
     7
 10
139.0
 20
135.76068767457019
 30
0.0
 11
139.0
 21
126.76068767457021
 31
0.0
  0
LINE
  5
175
  8
DATA
  6
CONTINUOUS
 62
     7
 10
129.5
 20
129.52568767457021
 30
0.0
 11
129.5
 21
132.99568767457021
 31
0.0
  0
LINE
  5
176
  8
DATA
  6
CONTINUOUS
 62
     7
 10
129.5
 20
132.99568767457021
 30
0.0
 11
139.0
 21
132.99568767457021
 31
0.0
  0
LINE
  5
177
  8
DATA
  6
CONTINUOUS
 62
     7
 10
129.5
 20
129.52568767457021
 30
0.0
 11
139.0
 21
129.52568767457021
 31
0.0
  0
LINE
  5
178
  8
DATA
  6
CONTINUOUS
 62
     7
 10
159.0
 20
135.3106876745702
 30
0.0
 11
139.0
 21
135.76068767457019
 31
0.0
  0
LINE
  5
179
  8
DATA
  6
CONTINUOUS
 62
     7
 10
159.0
 20
127.2106876745702
 30
0.0
 11
139.0
 21
126.76068767457021
 31
0.0
  0
LINE
  5
17A
  8
DATA
  6
CONTINUOUS
 62
     7
 10
174.0
 20
133.21068767457021
 30
0.0
 11
159.0
 21
135.3106876745702
 31
0.0
  0
LINE
  5
17B
  8
DATA
  6
CONTINUOUS
 62
     7
 10
174.0
 20
129.3106876745702
 30
0.0
 11
159.0
 21
127.2106876745702
 31
0.0
  0
LINE
  5
17C
  8
DATA
  6
CONTINUOUS
 62
     7
 10
174.0
 20
129.3106876745702
 30
0.0
 11
174.0
 21
133.21068767457021
 31
0.0
  0
LINE
  5
17D
  8
DATA
  6
CONTINUOUS
 62
     7
 10
146.19999999999999
 20
135.59868767457019
 30
0.0
 11
146.19999999999999
 21
126.9226876745702
 31
0.0
  0
LINE
  5
17E
  8
DATA
  6
CONTINUOUS
 62
     7
 10
147.19999999999999
 20
135.57618767457021
 30
0.0
 11
147.19999999999999
 21
126.94518767457021
 31
0.0
  0
LINE
  5
17F
  8
DATA
  6
CONTINUOUS
 62
     7
 10
148.19999999999999
 20
135.5536876745702
 30
0.0
 11
148.19999999999999
 21
126.9676876745702
 31
0.0
  0
LINE
  5
180
  8
DATA
  6
CONTINUOUS
 62
     7
 10
149.19999999999999
 20
135.53118767457019
 30
0.0
 11
149.19999999999999
 21
126.99018767457019
 31
0.0
  0
LINE
  5
181
  8
DATA
  6
CONTINUOUS
 62
     7
 10
150.19999999999999
 20
135.50868767457021
 30
0.0
 11
150.19999999999999
 21
127.0126876745702
 31
0.0
  0
LINE
  5
182
  8
DATA
  6
CONTINUOUS
 62
     7
 10
151.19999999999999
 20
135.4861876745702
 30
0.0
 11
151.19999999999999
 21
127.0351876745702
 31
0.0
  0
LINE
  5
183
  8
DATA
  6
CONTINUOUS
 62
     7
 10
152.19999999999999
 20
135.4636876745702
 30
0.0
 11
152.19999999999999
 21
127.0576876745702
 31
0.0
  0
LINE
  5
184
  8
DATA
  6
CONTINUOUS
 62
     7
 10
153.19999999999999
 20
135.44118767457019
 30
0.0
 11
153.19999999999999
 21
127.0801876745702
 31
0.0
  0
LINE
  5
185
  8
DATA
  6
CONTINUOUS
 62
     7
 10
154.1999999999999
 20
135.41868767457021
 30
0.0
 11
154.1999999999999
 21
127.10268767457021
 31
0.0
  0
LINE
  5
186
  8
DATA
  6
CONTINUOUS
 62
     7
 10
155.19999999999999
 20
135.3961876745702
 30
0.0
 11
155.19999999999999
 21
127.1251876745702
 31
0.0
  0
LINE
  5
187
  8
DATA
  6
CONTINUOUS
 62
     7
 10
156.19999999999999
 20
135.37368767457019
 30
0.0
 11
156.19999999999999
 21
127.14768767457019
 31
0.0
  0
LINE
  5
188
  8
DATA
  6
CONTINUOUS
 62
     7
 10
157.19999999999999
 20
135.35118767457021
 30
0.0
 11
157.19999999999999
 21
127.1701876745702
 31
0.0
  0
LINE
  5
189
  8
DATA
  6
CONTINUOUS
 62
     7
 10
158.19999999999999
 20
135.3286876745702
 30
0.0
 11
158.19999999999999
 21
127.19268767457019
 31
0.0
  0
LINE
  5
18A
  8
DATA
  6
CONTINUOUS
 62
     7
 10
159.19999999999999
 20
135.28268767457021
 30
0.0
 11
159.19999999999999
 21
127.2386876745702
 31
0.0
  0
LINE
  5
18B
  8
DATA
  6
CONTINUOUS
 62
     7
 10
160.19999999999999
 20
135.1426876745702
 30
0.0
 11
160.19999999999999
 21
127.3786876745702
 31
0.0
  0
LINE
  5
18C
  8
DATA
  6
CONTINUOUS
 62
     7
 10
161.19999999999999
 20
135.00268767457021
 30
0.0
 11
161.19999999999999
 21
127.5186876745702
 31
0.0
  0
LINE
  5
18D
  8
DATA
  6
CONTINUOUS
 62
     7
 10
162.19999999999999
 20
134.8626876745702
 30
0.0
 11
162.19999999999999
 21
127.6586876745702
 31
0.0
  0
LINE
  5
18E
  8
DATA
  6
CONTINUOUS
 62
     7
 10
163.19999999999999
 20
134.72268767457021
 30
0.0
 11
163.19999999999999
 21
127.7986876745702
 31
0.0
  0
LINE
  5
18F
  8
DATA
  6
CONTINUOUS
 62
     7
 10
164.19999999999999
 20
134.5826876745702
 30
0.0
 11
164.19999999999999
 21
127.9386876745702
 31
0.0
  0
LINE
  5
190
  8
DATA
  6
CONTINUOUS
 62
     7
 10
165.19999999999999
 20
134.44268767457021
 30
0.0
 11
165.19999999999999
 21
128.0786876745702
 31
0.0
  0
LINE
  5
191
  8
DATA
  6
CONTINUOUS
 62
     7
 10
166.19999999999999
 20
134.30268767457019
 30
0.0
 11
166.19999999999999
 21
128.21868767457019
 31
0.0
  0
LINE
  5
192
  8
DATA
  6
CONTINUOUS
 62
     7
 10
167.19999999999999
 20
134.16268767457021
 30
0.0
 11
167.19999999999999
 21
128.35868767457021
 31
0.0
  0
LINE
  5
193
  8
DATA
  6
CONTINUOUS
 62
     7
 10
168.19999999999999
 20
134.02268767457019
 30
0.0
 11
168.19999999999999
 21
128.49868767457019
 31
0.0
  0
LINE
  5
194
  8
DATA
  6
CONTINUOUS
 62
     7
 10
169.19999999999999
 20
133.88268767457021
 30
0.0
 11
169.19999999999999
 21
128.63868767457021
 31
0.0
  0
LINE
  5
195
  8
DATA
  6
CONTINUOUS
 62
     7
 10
170.19999999999999
 20
133.74268767457019
 30
0.0
 11
170.19999999999999
 21
128.77868767457019
 31
0.0
  0
LINE
  5
196
  8
DATA
  6
CONTINUOUS
 62
     7
 10
171.19999999999999
 20
133.60268767457021
 30
0.0
 11
171.19999999999999
 21
128.91868767457021
 31
0.0
  0
LINE
  5
197
  8
DATA
  6
CONTINUOUS
 62
     7
 10
172.19999999999999
 20
133.46268767457019
 30
0.0
 11
172.19999999999999
 21
129.05868767457019
 31
0.0
  0
LINE
  5
198
  8
DATA
  6
CONTINUOUS
 62
     7
 10
173.19999999999999
 20
133.3226876745702
 30
0.0
 11
173.19999999999999
 21
129.19868767457021
 31
0.0
  0
LINE
  5
199
  8
DATA
  6
CONTINUOUS
 62
     7
 10
125.0
 20
131.76068767457019
 30
0.0
 11
125.81
 21
132.76068767457019
 31
0.0
  0
LINE
  5
19A
  8
DATA
  6
CONTINUOUS
 62
     7
 10
125.0
 20
130.76068767457019
 30
0.0
 11
125.81
 21
129.76068767457019
 31
0.0
  0
LINE
  5
19B
  8
DATA
  6
CONTINUOUS
 62
     7
 10
125.81
 20
132.76068767457019
 30
0.0
 11
129.5
 21
132.3406876745702
 31
0.0
  0
LINE
  5
19C
  8
DATA
  6
CONTINUOUS
 62
     7
 10
125.81
 20
129.76068767457019
 30
0.0
 11
129.5
 21
130.18068767457021
 31
0.0
  0
LINE
  5
19D
  8
DATA
  6
CONTINUOUS
 62
     7
 10
130.0
 20
129.52568767457021
 30
0.0
 11
130.0
 21
132.99568767457021
 31
0.0
  0
LINE
  5
19E
  8
DATA
  6
CONTINUOUS
 62
     7
 10
130.5
 20
129.52568767457021
 30
0.0
 11
130.5
 21
132.99568767457021
 31
0.0
  0
ARC
  5
19F
  8
DATA
  6
CONTINUOUS
 62
     7
 10
103.6500000000002
 20
50.0
 30
0.0
 40
62.900000000000198
 50
170.85215748019829
 51
189.1478425198016
  0
LINE
  5
1A0
  8
DATA
  6
CONTINUOUS
 62
     7
 10
191.0
 20
49.0
 30
0.0
 11
137.7407512772912
 21
49.0
 31
0.0
  0
LINE
  5
1A1
  8
DATA
  6
CONTINUOUS
 62
     7
 10
127.5
 20
49.0
 30
0.0
 11
68.749999999999986
 21
49.0
 31
0.0
  0
LINE
  5
1A2
  8
DATA
  6
CONTINUOUS
 62
     7
 10
68.75
 20
51.0
 30
0.0
 11
127.5
 21
51.0
 31
0.0
  0
LINE
  5
1A3
  8
DATA
  6
CONTINUOUS
 62
     7
 10
137.7407512772912
 20
51.0
 30
0.0
 11
189.0
 21
51.0
 31
0.0
  0
LINE
  5
1A4
  8
DATA
  6
CONTINUOUS
 62
     7
 10
189.0
 20
130.26068767457019
 30
0.0
 11
174.0
 21
130.26068767457019
 31
0.0
  0
LINE
  5
1A5
  8
DATA
  6
CONTINUOUS
 62
     7
 10
174.0
 20
132.26068767457019
 30
0.0
 11
191.0
 21
132.26068767457019
 31
0.0
  0
LINE
  5
1A6
  8
DATA
  6
CONTINUOUS
 62
     7
 10
201.0
 20
122.26068767457021
 30
0.0
 11
201.0
 21
59.0
 31
0.0
  0
LINE
  5
1A7
  8
DATA
  6
CONTINUOUS
 62
     7
 10
199.0
 20
61.0
 30
0.0
 11
199.0
 21
120.26068767457021
 31
0.0
  0
ARC
  5
1A8
  8
DATA
  6
CONTINUOUS
 62
     7
 10
134.5348376603678
 20
46.990730931568542
 30
0.0
 40
4.4194173824158227
 50
135.00000000000031
 51
225.00000000000071
  0
ARC
  5
1A9
  8
DATA
  6
CONTINUOUS
 62
     7
 10
128.284837660368
 20
53.240730931568358
 30
0.0
 40
4.4194173824158094
 50
315.00000000000063
 51
45.000275020181441
  0
ARC
  5
1AA
  8
DATA
  6
CONTINUOUS
 62
     7
 10
137.191991037316
 20
46.990730931568542
 30
0.0
 40
4.4194173824158707
 50
135.0000000000006
 51
225.0000000000002
  0
ARC
  5
1AB
  8
DATA
  6
CONTINUOUS
 62
     7
 10
130.941981037316
 20
53.240730931568379
 30
0.0
 40
4.4194244534892686
 50
315.00009167310083
 51
45.000091673100187
  0
ARC
  5
1AC
  8
DATA
  6
CONTINUOUS
 62
     7
 10
189.0
 20
120.26068767457021
 30
0.0
 40
10.0
 50
0.0
 51
90.0
  0
ARC
  5
1AD
  8
DATA
  6
CONTINUOUS
 62
     7
 10
191.0
 20
122.26068767457021
 30
0.0
 40
10.0
 50
0.0
 51
90.0
  0
ARC
  5
1AE
  8
DATA
  6
CONTINUOUS
 62
     7
 10
189.0
 20
61.0
 30
0.0
 40
10.0
 50
270.0
 51
0.0
  0
ARC
  5
1AF
  8
DATA
  6
CONTINUOUS
 62
     7
 10
191.0
 20
59.0
 30
0.0
 40
10.0
 50
270.0
 51
0.0
  0
LINE
  5
1B0
  8
DATA
  6
CONTINUOUS
 62
     7
 10
13.0
 20
129.98985770125839
 30
0.0
 11
1.2499999999999849
 21
129.98985770125839
 31
0.0
  0
LINE
  5
1B1
  8
DATA
  6
CONTINUOUS
 62
     7
 10
3.7499999999999849
 20
132.48985770125839
 30
0.0
 11
13.0
 21
132.48985770125839
 31
0.0
  0
LINE
  5
1B2
  8
DATA
  6
CONTINUOUS
 62
     7
 10
-8.7500000000000142
 20
139.98985770125839
 30
0.0
 11
-8.7500000000000142
 21
161.21091989369251
 31
0.0
  0
LINE
  5
1B3
  8
DATA
  6
CONTINUOUS
 62
     7
 10
-8.7500000000000142
 20
171.30440397968229
 30
0.0
 11
-8.7500000000000142
 21
194.48002253254239
 31
0.0
  0
LINE
  5
1B4
  8
DATA
  6
CONTINUOUS
 62
     7
 10
-6.2500000000000142
 20
191.98002253254239
 30
0.0
 11
-6.2500000000000142
 21
171.30440397968229
 31
0.0
  0
LINE
  5
1B5
  8
DATA
  6
CONTINUOUS
 62
     7
 10
-6.2500000000000142
 20
161.21091989369251
 30
0.0
 11
-6.2500000000000142
 21
142.48985770125839
 31
0.0
  0
ARC
  5
1B6
  8
DATA
  6
CONTINUOUS
 62
     7
 10
3.7499999999999849
 20
191.98002253254239
 30
0.0
 40
10.0
 50
90.0
 51
180.0
  0
ARC
  5
1B7
  8
DATA
  6
CONTINUOUS
 62
     7
 10
1.2499999999999849
 20
194.48002253254239
 30
0.0
 40
10.0
 50
90.0
 51
180.0
  0
ARC
  5
1B8
  8
DATA
  6
CONTINUOUS
 62
     7
 10
3.7499999999999849
 20
142.48985770125839
 30
0.0
 40
10.0
 50
180.0
 51
270.0
  0
ARC
  5
1B9
  8
DATA
  6
CONTINUOUS
 62
     7
 10
1.2499999999999849
 20
139.98985770125839
 30
0.0
 40
10.0
 50
180.0
 51
270.0
  0
ARC
  5
1BA
  8
DATA
  6
CONTINUOUS
 62
     7
 10
-10.786996404821929
 20
163.86807327064071
 30
0.0
 40
4.4194173824158209
 50
45.000000000000242
 51
135.0000000000008
  0
ARC
  5
1BB
  8
DATA
  6
CONTINUOUS
 62
     7
 10
-4.5369964048221316
 20
170.11807327064039
 30
0.0
 40
4.4194173824158014
 50
225.0000000000004
 51
315.00027502018162
  0
ARC
  5
1BC
  8
DATA
  6
CONTINUOUS
 62
     7
 10
-10.786996404821929
 20
161.21091989369251
 30
0.0
 40
4.4194173824158707
 50
45.000000000000661
 51
135.0000000000002
  0
ARC
  5
1BD
  8
DATA
  6
CONTINUOUS
 62
     7
 10
-4.536996404822105
 20
167.46092989369239
 30
0.0
 40
4.4194244534892624
 50
225.00009167310071
 51
315.00009167310031
  0
LINE
  5
1BE
  8
DATA
  6
CONTINUOUS
 62
     7
 10
75.999999999830735
 20
208.39920682257249
 30
0.0
 11
75.999999999830735
 21
198.06083824251209
 31
0.0
  0
TEXT
  5
1BF
  8
DATA
 62
     7
 10
45.523940145251323
 20
7.9079571750459721
 30
0.0
 40
4.072102864583333
  1
マイク部
 41
0.7
 11
45.523940145251323
 21
11.980060039629301
 31
0.0
 73
     3
  0
LINE
  5
1C0
  8
DATA
  6
CONTINUOUS
 62
     7
 10
43.75
 20
6.25
 30
0.0
 11
68.75
 21
6.25
 31
0.0
  0
TEXT
  5
1C1
  8
DATA
 62
     7
 10
114.764917813221
 20
170.89195357630879
 30
0.0
 40
4.072102864583333
  1
プリアンプ部
 41
0.7
 11
114.764917813221
 21
174.96405644089211
 31
0.0
 73
     3
  0
LINE
  5
1C2
  8
DATA
  6
CONTINUOUS
 62
     7
 10
112.5
 20
168.75
 30
0.0
 11
150.0
 21
168.75
 31
0.0
  0
ENDSEC
  0
EOF
